  0
SECTION
  2
HEADER
  9
$ACADVER
  1
AC1015
  9
$ACADMAINTVER
 70
     6
  9
$DWGCODEPAGE
  3
ANSI_1252
  9
$INSBASE
 10
0.0
 20
0.0
 30
0.0
  9
$EXTMIN
 10
-36.4786176137
 20
-7.0004367044
 30
0.0
  9
$EXTMAX
 10
36.4786176137
 20
24.441
 30
0.0
  9
$LIMMIN
 10
0.0
 20
0.0
  9
$LIMMAX
 10
12.0
 20
9.0
  9
$ORTHOMODE
 70
     0
  9
$REGENMODE
 70
     1
  9
$FILLMODE
 70
     1
  9
$QTEXTMODE
 70
     0
  9
$MIRRTEXT
 70
     1
  9
$LTSCALE
 40
1.0
  9
$ATTMODE
 70
     1
  9
$TEXTSIZE
 40
0.1377952756
  9
$TRACEWID
 40
0.05
  9
$TEXTSTYLE
  7
Standard
  9
$CLAYER
  8
0
  9
$CELTYPE
  6
ByLayer
  9
$CECOLOR
 62
   256
  9
$CELTSCALE
 40
1.0
  9
$DISPSILH
 70
     0
  9
$DIMSCALE
 40
1.0
  9
$DIMASZ
 40
0.156
  9
$DIMEXO
 40
0.0
  9
$DIMDLI
 40
0.38
  9
$DIMRND
 40
0.0
  9
$DIMDLE
 40
0.0
  9
$DIMEXE
 40
0.125
  9
$DIMTP
 40
0.0
  9
$DIMTM
 40
0.0
  9
$DIMTXT
 40
0.1377952756
  9
$DIMCEN
 40
0.09
  9
$DIMTSZ
 40
0.0
  9
$DIMTOL
 70
     0
  9
$DIMLIM
 70
     0
  9
$DIMTIH
 70
     1
  9
$DIMTOH
 70
     1
  9
$DIMSE1
 70
     0
  9
$DIMSE2
 70
     0
  9
$DIMTAD
 70
     0
  9
$DIMZIN
 70
     0
  9
$DIMBLK
  1

  9
$DIMASO
 70
     1
  9
$DIMSHO
 70
     1
  9
$DIMPOST
  1

  9
$DIMAPOST
  1

  9
$DIMALT
 70
     0
  9
$DIMALTD
 70
     2
  9
$DIMALTF
 40
25.4
  9
$DIMLFAC
 40
1.0
  9
$DIMTOFL
 70
     0
  9
$DIMTVP
 40
0.0
  9
$DIMTIX
 70
     0
  9
$DIMSOXD
 70
     0
  9
$DIMSAH
 70
     0
  9
$DIMBLK1
  1

  9
$DIMBLK2
  1

  9
$DIMSTYLE
  2
Standard
  9
$DIMCLRD
 70
     0
  9
$DIMCLRE
 70
     0
  9
$DIMCLRT
 70
     0
  9
$DIMTFAC
 40
1.0
  9
$DIMGAP
 40
0.06
  9
$DIMJUST
 70
     0
  9
$DIMSD1
 70
     0
  9
$DIMSD2
 70
     0
  9
$DIMTOLJ
 70
     1
  9
$DIMTZIN
 70
     0
  9
$DIMALTZ
 70
     0
  9
$DIMALTTZ
 70
     0
  9
$DIMUPT
 70
     0
  9
$DIMDEC
 70
     3
  9
$DIMTDEC
 70
     3
  9
$DIMALTU
 70
     2
  9
$DIMALTTD
 70
     2
  9
$DIMTXSTY
  7
Standard
  9
$DIMAUNIT
 70
     0
  9
$DIMADEC
 70
     2
  9
$DIMALTRND
 40
0.0
  9
$DIMAZIN
 70
     0
  9
$DIMDSEP
 70
    46
  9
$DIMATFIT
 70
     3
  9
$DIMFRAC
 70
     0
  9
$DIMLDRBLK
  1

  9
$DIMLUNIT
 70
     2
  9
$DIMLWD
 70
    -2
  9
$DIMLWE
 70
    -2
  9
$DIMTMOVE
 70
     0
  9
$LUNITS
 70
     2
  9
$LUPREC
 70
     2
  9
$SKETCHINC
 40
0.1
  9
$FILLETRAD
 40
0.0
  9
$AUNITS
 70
     0
  9
$AUPREC
 70
     4
  9
$MENU
  1
.
  9
$ELEVATION
 40
0.0
  9
$PELEVATION
 40
0.0
  9
$THICKNESS
 40
0.0
  9
$LIMCHECK
 70
     0
  9
$CHAMFERA
 40
0.0
  9
$CHAMFERB
 40
0.0
  9
$CHAMFERC
 40
0.0
  9
$CHAMFERD
 40
0.0
  9
$SKPOLY
 70
     0
  9
$TDCREATE
 40
2459867.63385419
  9
$TDUCREATE
 40
2459867.800520856
  9
$TDUPDATE
 40
2459867.633882836
  9
$TDUUPDATE
 40
2459867.800549502
  9
$TDINDWG
 40
0.0000000116
  9
$TDUSRTIMER
 40
0.0000000116
  9
$USRTIMER
 70
     1
  9
$ANGBASE
 50
0.0
  9
$ANGDIR
 70
     0
  9
$PDMODE
 70
     0
  9
$PDSIZE
 40
-1.0
  9
$PLINEWID
 40
0.0
  9
$SPLFRAME
 70
     0
  9
$SPLINETYPE
 70
     6
  9
$SPLINESEGS
 70
     8
  9
$HANDSEED
  5
345
  9
$SURFTAB1
 70
     6
  9
$SURFTAB2
 70
     6
  9
$SURFTYPE
 70
     6
  9
$SURFU
 70
     6
  9
$SURFV
 70
     6
  9
$UCSBASE
  2

  9
$UCSNAME
  2

  9
$UCSORG
 10
0.0
 20
0.0
 30
0.0
  9
$UCSXDIR
 10
1.0
 20
0.0
 30
0.0
  9
$UCSYDIR
 10
0.0
 20
1.0
 30
0.0
  9
$UCSORTHOREF
  2

  9
$UCSORTHOVIEW
 70
     0
  9
$UCSORGTOP
 10
0.0
 20
0.0
 30
0.0
  9
$UCSORGBOTTOM
 10
0.0
 20
0.0
 30
0.0
  9
$UCSORGLEFT
 10
0.0
 20
0.0
 30
0.0
  9
$UCSORGRIGHT
 10
0.0
 20
0.0
 30
0.0
  9
$UCSORGFRONT
 10
0.0
 20
0.0
 30
0.0
  9
$UCSORGBACK
 10
0.0
 20
0.0
 30
0.0
  9
$PUCSBASE
  2

  9
$PUCSNAME
  2

  9
$PUCSORG
 10
0.0
 20
0.0
 30
0.0
  9
$PUCSXDIR
 10
1.0
 20
0.0
 30
0.0
  9
$PUCSYDIR
 10
0.0
 20
1.0
 30
0.0
  9
$PUCSORTHOREF
  2

  9
$PUCSORTHOVIEW
 70
     0
  9
$PUCSORGTOP
 10
0.0
 20
0.0
 30
0.0
  9
$PUCSORGBOTTOM
 10
0.0
 20
0.0
 30
0.0
  9
$PUCSORGLEFT
 10
0.0
 20
0.0
 30
0.0
  9
$PUCSORGRIGHT
 10
0.0
 20
0.0
 30
0.0
  9
$PUCSORGFRONT
 10
0.0
 20
0.0
 30
0.0
  9
$PUCSORGBACK
 10
0.0
 20
0.0
 30
0.0
  9
$USERI1
 70
     0
  9
$USERI2
 70
     0
  9
$USERI3
 70
     0
  9
$USERI4
 70
     0
  9
$USERI5
 70
     0
  9
$USERR1
 40
0.0
  9
$USERR2
 40
0.0
  9
$USERR3
 40
0.0
  9
$USERR4
 40
0.0
  9
$USERR5
 40
0.0
  9
$WORLDVIEW
 70
     1
  9
$SHADEDGE
 70
     3
  9
$SHADEDIF
 70
    70
  9
$TILEMODE
 70
     1
  9
$MAXACTVP
 70
    64
  9
$PINSBASE
 10
0.0
 20
0.0
 30
0.0
  9
$PLIMCHECK
 70
     0
  9
$PEXTMIN
 10
-36.4789687911
 20
-13.6622083447
 30
0.0
  9
$PEXTMAX
 10
36.4789687911
 20
13.6622083447
 30
0.0
  9
$PLIMMIN
 10
-38.2160653437
 20
-15.3993021618
  9
$PLIMMAX
 10
38.2160626081
 20
43.6618876192
  9
$UNITMODE
 70
     0
  9
$VISRETAIN
 70
     1
  9
$PLINEGEN
 70
     0
  9
$PSLTSCALE
 70
     1
  9
$TREEDEPTH
 70
  3020
  9
$CMLSTYLE
  2
Standard
  9
$CMLJUST
 70
     0
  9
$CMLSCALE
 40
1.0
  9
$PROXYGRAPHICS
 70
     1
  9
$MEASUREMENT
 70
     0
  9
$CELWEIGHT
370
    -1
  9
$ENDCAPS
280
     0
  9
$JOINSTYLE
280
     0
  9
$LWDISPLAY
290
     1
  9
$INSUNITS
 70
     1
  9
$HYPERLINKBASE
  1

  9
$STYLESHEET
  1

  9
$XEDIT
290
     1
  9
$CEPSNTYPE
380
     0
  9
$PSTYLEMODE
290
     1
  9
$FINGERPRINTGUID
  2
{95ff1494-f7f0-4d2a-b510-89385d26907c}
  9
$VERSIONGUID
  2
{FAEB1C32-E019-11D5-929B-00C0DF256EC4}
  9
$EXTNAMES
290
     1
  9
$PSVPSCALE
 40
0.0
  9
$OLESTARTUP
290
     0
  0
ENDSEC
  0
SECTION
  2
CLASSES
  0
CLASS
  1
ACDBDICTIONARYWDFLT
  2
AcDbDictionaryWithDefault
  3
ObjectDBX Classes
 90
        0
280
     0
281
     0
  0
CLASS
  1
VISUALSTYLE
  2
AcDbVisualStyle
  3
ObjectDBX Classes
 90
     4095
280
     0
281
     0
  0
CLASS
  1
MATERIAL
  2
AcDbMaterial
  3
ObjectDBX Classes
 90
     1153
280
     0
281
     0
  0
CLASS
  1
SCALE
  2
AcDbScale
  3
ObjectDBX Classes
 90
     1153
280
     0
281
     0
  0
CLASS
  1
TABLESTYLE
  2
AcDbTableStyle
  3
ObjectDBX Classes
 90
     4095
280
     0
281
     0
  0
CLASS
  1
MLEADERSTYLE
  2
AcDbMLeaderStyle
  3
ACDB_MLEADERSTYLE_CLASS
 90
     4095
280
     0
281
     0
  0
CLASS
  1
SUN
  2
AcDbSun
  3
SCENEOE
 90
     1153
280
     0
281
     0
  0
CLASS
  1
ACDBPLACEHOLDER
  2
AcDbPlaceHolder
  3
ObjectDBX Classes
 90
        0
280
     0
281
     0
  0
CLASS
  1
LAYOUT
  2
AcDbLayout
  3
ObjectDBX Classes
 90
        0
280
     0
281
     0
  0
ENDSEC
  0
SECTION
  2
TABLES
  0
TABLE
  2
VPORT
  5
8
330
0
100
AcDbSymbolTable
 70
     1
  0
VPORT
  5
29
330
8
100
AcDbSymbolTableRecord
100
AcDbViewportTableRecord
  2
*Active
 70
     0
 10
0.0
 20
0.0
 11
1.0
 21
1.0
 12
0.0
 22
8.7202816478
 13
0.0
 23
0.0
 14
0.5
 24
0.5
 15
0.5
 25
0.5
 16
0.0
 26
0.0
 36
1.0
 17
0.0
 27
0.0
 37
0.0
 40
32.0702654385
 41
2.3204167136
 42
50.0
 43
0.0
 44
0.0
 50
0.0
 51
0.0
 71
     0
 72
   100
 73
     1
 74
     3
 75
     0
 76
     0
 77
     0
 78
     0
281
     0
 65
     1
110
0.0
120
0.0
130
0.0
111
1.0
121
0.0
131
0.0
112
0.0
122
1.0
132
0.0
 79
     0
146
0.0
  0
ENDTAB
  0
TABLE
  2
LTYPE
  5
5
330
0
100
AcDbSymbolTable
 70
     6
  0
LTYPE
  5
14
330
5
100
AcDbSymbolTableRecord
100
AcDbLinetypeTableRecord
  2
ByBlock
 70
     0
  3

 72
    65
 73
     0
 40
0.0
  0
LTYPE
  5
15
330
5
100
AcDbSymbolTableRecord
100
AcDbLinetypeTableRecord
  2
ByLayer
 70
     0
  3

 72
    65
 73
     0
 40
0.0
  0
LTYPE
  5
16
330
5
100
AcDbSymbolTableRecord
100
AcDbLinetypeTableRecord
  2
Continuous
 70
     0
  3
Solid line
 72
    65
 73
     0
 40
0.0
  0
LTYPE
  5
5E
330
5
100
AcDbSymbolTableRecord
100
AcDbLinetypeTableRecord
  2
HIDDEN
 70
     0
  3
Hidden __ __ __ __ __ __ __ __ __ __ __ __ __ __
 72
    65
 73
     2
 40
0.075
 49
0.05
 74
     0
 49
-0.025
 74
     0
  0
LTYPE
  5
5F
330
5
100
AcDbSymbolTableRecord
100
AcDbLinetypeTableRecord
  2
PHANTOM
 70
     0
  3
Phantom ______  __  __  ______  __  __  ______
 72
    65
 73
     6
 40
0.5
 49
0.25
 74
     0
 49
-0.05
 74
     0
 49
0.05
 74
     0
 49
-0.05
 74
     0
 49
0.05
 74
     0
 49
-0.05
 74
     0
  0
LTYPE
  5
60
330
5
100
AcDbSymbolTableRecord
100
AcDbLinetypeTableRecord
  2
CENTER
 70
     0
  3
Center ____ _ ____ _ ____ _ ____ _ ____ _ ____
 72
    65
 73
     4
 40
0.4
 49
0.25
 74
     0
 49
-0.05
 74
     0
 49
0.05
 74
     0
 49
-0.05
 74
     0
  0
LTYPE
  5
61
330
5
100
AcDbSymbolTableRecord
100
AcDbLinetypeTableRecord
  2
CENTERX2
 70
     0
  3
Center (2x) ________  __  ________  __  _____
 72
    65
 73
     4
 40
0.8
 49
0.5
 74
     0
 49
-0.1
 74
     0
 49
0.1
 74
     0
 49
-0.1
 74
     0
  0
LTYPE
  5
62
330
5
100
AcDbSymbolTableRecord
100
AcDbLinetypeTableRecord
  2
DOT2
 70
     0
  3
Dot (.5x) ........................................
 72
    65
 73
     2
 40
0.025
 49
0.0
 74
     0
 49
-0.025
 74
     0
  0
ENDTAB
  0
TABLE
  2
LAYER
  5
2
330
0
100
AcDbSymbolTable
 70
     1
  0
LAYER
  5
10
330
2
100
AcDbSymbolTableRecord
100
AcDbLayerTableRecord
  2
0
 70
     0
 62
     7
  6
Continuous
370
    -3
390
F
  0
ENDTAB
  0
TABLE
  2
STYLE
  5
3
330
0
100
AcDbSymbolTable
 70
     1
  0
STYLE
  5
11
330
3
100
AcDbSymbolTableRecord
100
AcDbTextStyleTableRecord
  2
Standard
 70
     0
 40
0.0
 41
1.0
 50
0.0
 71
     0
 42
0.1377952756
  3
txt
  4

  0
ENDTAB
  0
TABLE
  2
VIEW
  5
6
330
0
100
AcDbSymbolTable
 70
     0
  0
ENDTAB
  0
TABLE
  2
UCS
  5
7
330
0
100
AcDbSymbolTable
 70
     0
  0
ENDTAB
  0
TABLE
  2
APPID
  5
9
330
0
100
AcDbSymbolTable
 70
     1
  0
APPID
  5
12
330
9
100
AcDbSymbolTableRecord
100
AcDbRegAppTableRecord
  2
ACAD
 70
     0
  0
ENDTAB
  0
TABLE
  2
DIMSTYLE
  5
A
330
0
100
AcDbSymbolTable
 70
     1
100
AcDbDimStyleTable
  0
DIMSTYLE
105
27
330
A
100
AcDbSymbolTableRecord
100
AcDbDimStyleTableRecord
  2
Standard
 70
     0
178
     0
340
11
  0
ENDTAB
  0
TABLE
  2
BLOCK_RECORD
  5
1
330
0
100
AcDbSymbolTable
 70
     1
  0
BLOCK_RECORD
  5
1F
330
1
100
AcDbSymbolTableRecord
100
AcDbBlockTableRecord
  2
*Model_Space
340
22
  0
BLOCK_RECORD
  5
1B
330
1
100
AcDbSymbolTableRecord
100
AcDbBlockTableRecord
  2
*Paper_Space
340
1E
  0
BLOCK_RECORD
  5
23
330
1
100
AcDbSymbolTableRecord
100
AcDbBlockTableRecord
  2
*Paper_Space0
340
26
  0
ENDTAB
  0
ENDSEC
  0
SECTION
  2
BLOCKS
  0
BLOCK
  5
20
330
1F
100
AcDbEntity
  8
0
100
AcDbBlockBegin
  2
*Model_Space
 70
     0
 10
0.0
 20
0.0
 30
0.0
  3
*Model_Space
  1

  0
ENDBLK
  5
21
330
1F
100
AcDbEntity
  8
0
100
AcDbBlockEnd
  0
BLOCK
  5
1C
330
1B
100
AcDbEntity
 67
     1
  8
0
100
AcDbBlockBegin
  2
*Paper_Space
 70
     0
 10
0.0
 20
0.0
 30
0.0
  3
*Paper_Space
  1

  0
ENDBLK
  5
1D
330
1B
100
AcDbEntity
 67
     1
  8
0
100
AcDbBlockEnd
  0
BLOCK
  5
24
330
23
100
AcDbEntity
  8
0
100
AcDbBlockBegin
  2
*Paper_Space0
 70
     0
 10
0.0
 20
0.0
 30
0.0
  3
*Paper_Space0
  1

  0
SPLINE
  5
2AD
330
23
100
AcDbEntity
  8
0
  6
Continuous
 62
     7
370
    25
100
AcDbSpline
210
0.0
220
0.0
230
1.0
 70
     8
 71
     3
 72
    31
 73
    27
 74
     0
 42
0.00000001
 43
0.00000001
 40
0.0
 40
0.0
 40
0.0
 40
0.0
 40
0.0431256223673571
 40
0.0859920462888147
 40
0.1288398981523078
 40
0.1729185784203479
 40
0.2184152326474136
 40
0.2653291226805379
 40
0.3014557337689264
 40
0.338379966847617
 40
0.375544649578152
 40
0.4123551936999713
 40
0.460870617821898
 40
0.5087614763602192
 40
0.5560307237728875
 40
0.602680933666541
 40
0.6487214190748274
 40
0.6948562442193932
 40
0.7415623358675657
 40
0.7888423160332731
 40
0.8366984545291107
 40
0.8729815304742304
 40
0.9095911060737378
 40
0.9465375751205458
 40
0.9838986273426485
 40
1.0
 40
1.0
 40
1.0
 40
1.0
 10
-10.77201745220256
 20
-7.000000000000001
 30
0.0
 10
-10.70951175743702
 20
-6.996842969711553
 30
0.0
 10
-10.58487604663365
 20
-6.990547883871709
 30
0.0
 10
-10.40385220028809
 20
-6.94410029393693
 30
0.0
 10
-10.22870165499529
 20
-6.8745789513285
 30
0.0
 10
-10.05766342823606
 20
-6.775454414714575
 30
0.0
 10
-9.89242055939627
 20
-6.646059095039266
 30
0.0
 10
-9.749937747312064
 20
-6.499308725369135
 30
0.0
 10
-9.630015462229535
 20
-6.343701560108823
 30
0.0
 10
-9.531420586250377
 20
-6.18700688956539
 30
0.0
 10
-9.44508616960167
 20
-6.016988662121801
 30
0.0
 10
-9.364913747382598
 20
-5.817585513820711
 30
0.0
 10
-9.297787850920173
 20
-5.588556202274897
 30
0.0
 10
-9.251178469042069
 20
-5.331310218623869
 30
0.0
 10
-9.231089027332507
 20
-5.071762520084697
 30
0.0
 10
-9.236839383613432
 20
-4.814438616033963
 30
0.0
 10
-9.26745853210255
 20
-4.56223843441695
 30
0.0
 10
-9.322417776797591
 20
-4.31701939876821
 30
0.0
 10
-9.401683442937353
 20
-4.080826019105504
 30
0.0
 10
-9.504977356624716
 20
-3.857217311733354
 30
0.0
 10
-9.620719716524109
 20
-3.668051367780104
 30
0.0
 10
-9.741657413371483
 20
-3.511753962637643
 30
0.0
 10
-9.862008105107009
 20
-3.384309666859465
 30
0.0
 10
-9.993265342060521
 20
-3.27351866566855
 30
0.0
 10
-10.10593185629706
 20
-3.193954579061901
 30
0.0
 10
-10.17685425719177
 20
-3.158945611546854
 30
0.0
 10
-10.19821408157561
 20
-3.148401899143611
 30
0.0
  0
SPLINE
  5
2AF
330
23
100
AcDbEntity
  8
0
  6
Continuous
 62
     7
370
    25
100
AcDbSpline
210
0.0
220
0.0
230
1.0
 70
     8
 71
     3
 72
    26
 73
    22
 74
     0
 42
0.00000001
 43
0.00000001
 40
0.0
 40
0.0
 40
0.0
 40
0.0
 40
0.0023727930593525
 40
0.0574100115418221
 40
0.1125162664031403
 40
0.1677249570626371
 40
0.2230569727681278
 40
0.2785200657119886
 40
0.3341103636717175
 40
0.3898153100098877
 40
0.4456171468778111
 40
0.5014961697395325
 40
0.557433268078348
 40
0.6134115828868171
 40
0.6694173495232366
 40
0.7254401175377919
 40
0.7814725646906
 40
0.8375092000845876
 40
0.8935481374922419
 40
0.9495891964619049
 40
1.0
 40
1.0
 40
1.0
 40
1.0
 10
-11.34771522566358
 20
-3.023757290530786
 30
0.0
 10
-11.34946930577722
 20
-3.024019500044234
 30
0.0
 10
-11.39190948368168
 20
-3.030363690547515
 30
0.0
 10
-11.47372123463966
 20
-3.054162332186775
 30
0.0
 10
-11.59209045726872
 20
-3.095888227931234
 30
0.0
 10
-11.70729779824927
 20
-3.150864902376922
 30
0.0
 10
-11.8188489625062
 20
-3.216980270555743
 30
0.0
 10
-11.9260036993492
 20
-3.294335384756359
 30
0.0
 10
-12.02810408969602
 20
-3.382341707653313
 30
0.0
 10
-12.12449673580678
 20
-3.48049866781282
 30
0.0
 10
-12.21456552212383
 20
-3.588186783682389
 30
0.0
 10
-12.29773396979855
 20
-3.704729667058259
 30
0.0
 10
-12.37347347849598
 20
-3.829386527363007
 30
0.0
 10
-12.44130793881926
 20
-3.961364568067042
 30
0.0
 10
-12.50081471576095
 20
-4.099826004610013
 30
0.0
 10
-12.55163294085687
 20
-4.243895846310565
 30
0.0
 10
-12.59343795271948
 20
-4.39266757420472
 30
0.0
 10
-12.62603868723618
 20
-4.545210844392355
 30
0.0
 10
-12.6490164628225
 20
-4.700575199783152
 30
0.0
 10
-12.66260118069478
 20
-4.852535133584365
 30
0.0
 10
-12.66420560580483
 20
-4.952609358255603
 30
0.0
 10
-12.66496538921405
 20
-5.0
 30
0.0
  0
SPLINE
  5
2B0
330
23
100
AcDbEntity
  8
0
  6
Continuous
 62
     7
370
    25
100
AcDbSpline
210
0.0
220
0.0
230
1.0
 70
     8
 71
     3
 72
    26
 73
    22
 74
     0
 42
0.00000001
 43
0.00000001
 40
0.0
 40
0.0
 40
0.0
 40
0.0
 40
0.0299926107233132
 40
0.0863586076869117
 40
0.1427417641701308
 40
0.1991333273003091
 40
0.2555344599317615
 40
0.3119453445140501
 40
0.3683646912460566
 40
0.424787952156072
 40
0.4812079646750153
 40
0.5376145580650665
 40
0.5939938410380081
 40
0.6503281349381475
 40
0.7065964722506942
 40
0.7627759088480444
 40
0.818843821252218
 40
0.8747811500282985
 40
0.9305762133425465
 40
0.9862283429226283
 40
1.0
 40
1.0
 40
1.0
 40
1.0
 10
-12.66496538921405
 20
-5.0
 30
0.0
 10
-12.66468993465862
 20
-5.028028624521081
 30
0.0
 10
-12.66389681024182
 20
-5.108732268873674
 30
0.0
 10
-12.6551362077064
 20
-5.24183068709443
 30
0.0
 10
-12.63562494250856
 20
-5.39803039888139
 30
0.0
 10
-12.6064646576415
 20
-5.551801661618604
 30
0.0
 10
-12.56799036771777
 20
-5.70217865028127
 30
0.0
 10
-12.52037765126261
 20
-5.848230189350758
 30
0.0
 10
-12.46391347008557
 20
-5.989044378686819
 30
0.0
 10
-12.39892393017417
 20
-6.123735724821868
 30
0.0
 10
-12.32579378931781
 20
-6.251449401163346
 30
0.0
 10
-12.24496103938753
 20
-6.371367519905642
 30
0.0
 10
-12.15691842631128
 20
-6.482713779906957
 30
0.0
 10
-12.06221356868908
 20
-6.584762686657667
 30
0.0
 10
-11.96144686536743
 20
-6.676836591620028
 30
0.0
 10
-11.85527414600623
 20
-6.758354220964667
 30
0.0
 10
-11.74438281356819
 20
-6.828691859323911
 30
0.0
 10
-11.62955464095764
 20
-6.887742785774249
 30
0.0
 10
-11.51139202309161
 20
-6.933875057456198
 30
0.0
 10
-11.42131577819626
 20
-6.962130480133549
 30
0.0
 10
-11.37041487082314
 20
-6.970993233443937
 30
0.0
 10
-11.36031761345617
 20
-6.972751345543964
 30
0.0
  0
SPLINE
  5
2B5
330
23
100
AcDbEntity
  8
0
  6
Continuous
 62
     7
370
    25
100
AcDbSpline
210
0.0
220
0.0
230
1.0
 70
     8
 71
     3
 72
     9
 73
     5
 74
     0
 42
0.00000001
 43
0.00000001
 40
0.0
 40
0.0
 40
0.0
 40
0.0
 40
0.6195973808625324
 40
1.0
 40
1.0
 40
1.0
 40
1.0
 10
-11.44788369720433
 20
-3.048769868810673
 30
0.0
 10
-11.46627055669957
 20
-3.042858653043314
 30
0.0
 10
-11.49594605253469
 20
-3.033318238654974
 30
0.0
 10
-11.52633275977809
 20
-3.028347906282786
 30
0.0
 10
-11.53789194280044
 20
-3.026457178830423
 30
0.0
  0
SPLINE
  5
2B7
330
23
100
AcDbEntity
  8
0
  6
Continuous
 62
     7
370
    25
100
AcDbSpline
210
0.0
220
0.0
230
1.0
 70
     8
 71
     3
 72
    39
 73
    35
 74
     0
 42
0.00000001
 43
0.00000001
 40
0.0
 40
0.0
 40
0.0
 40
0.0
 40
0.0358083112101515
 40
0.0752360644426279
 40
0.11620789452972
 40
0.1573741087658981
 40
0.1986771990263449
 40
0.2401166629192001
 40
0.2816914953853534
 40
0.3125498695057328
 40
0.3374882168259216
 40
0.3564854307270114
 40
0.3695526706178536
 40
0.3832270887893146
 40
0.3993771941873079
 40
0.419848606926886
 40
0.4446402422245119
 40
0.4737508088447583
 40
0.5070066005123969
 40
0.5399223365722056
 40
0.5849368660157226
 40
0.6247442909783271
 40
0.6593439837761257
 40
0.6887350484786179
 40
0.7148429223243905
 40
0.739585371043905
 40
0.7632503866167547
 40
0.790669262671169
 40
0.8235689741551308
 40
0.8619524214853336
 40
0.9058231116601296
 40
0.9530579250925539
 40
0.9999736652846096
 40
0.9999999999999999
 40
0.9999999999999999
 40
0.9999999999999999
 40
0.9999999999999999
 10
-12.27593414535642
 20
-3.010757785297594
 30
0.0
 10
-12.32536865316752
 20
-3.019042667151583
 30
0.0
 10
-12.42923442314304
 20
-3.036449852355274
 30
0.0
 10
-12.58411118422244
 20
-3.08931791298433
 30
0.0
 10
-12.74015455104132
 20
-3.16419584392836
 30
0.0
 10
-12.89133341706198
 20
-3.263058537279272
 30
0.0
 10
-13.03376662901222
 20
-3.383186377762996
 30
0.0
 10
-13.16557931649337
 20
-3.523531420785599
 30
0.0
 10
-13.27465120786911
 20
-3.668676940138907
 30
0.0
 10
-13.35817866847297
 20
-3.803780129330067
 30
0.0
 10
-13.41620751899063
 20
-3.913430816646534
 30
0.0
 10
-13.45656298267865
 20
-4.000196736106785
 30
0.0
 10
-13.48661889248153
 20
-4.071529639837404
 30
0.0
 10
-13.51293563595516
 20
-4.13963924524717
 30
0.0
 10
-13.54132602167587
 20
-4.221026145727126
 30
0.0
 10
-13.57221131905586
 20
-4.322505172648628
 30
0.0
 10
-13.60384913810189
 20
-4.448141854658899
 30
0.0
 10
-13.63272382173563
 20
-4.598499098681313
 30
0.0
 10
-13.65365540436293
 20
-4.765790712758898
 30
0.0
 10
-13.66478350146061
 20
-4.963009344644163
 30
0.0
 10
-13.65979976455259
 20
-5.172596848962994
 30
0.0
 10
-13.63635756735596
 20
-5.38292058907816
 30
0.0
 10
-13.60213383354054
 20
-5.562116094324914
 30
0.0
 10
-13.56236951079278
 20
-5.713759659787844
 30
0.0
 10
-13.51935414963841
 20
-5.845028756756014
 30
0.0
 10
-13.47313704059708
 20
-5.963138999341667
 30
0.0
 10
-13.42023822371548
 20
-6.079174113560665
 30
0.0
 10
-13.35500409832164
 20
-6.202236454798083
 30
0.0
 10
-13.26962062815387
 20
-6.338494139467017
 30
0.0
 10
-13.15872302932405
 20
-6.484317128425054
 30
0.0
 10
-13.02113280912531
 20
-6.63046272596975
 30
0.0
 10
-12.85990955841461
 20
-6.758437352890028
 30
0.0
 10
-12.74441906936134
 20
-6.836682191788968
 30
0.0
 10
-12.68285468848933
 20
-6.862341768588013
 30
0.0
 10
-12.68282015059445
 20
-6.862356163726136
 30
0.0
  0
SPLINE
  5
2BA
330
23
100
AcDbEntity
  8
0
  6
Continuous
 62
     7
370
    25
100
AcDbSpline
210
0.0
220
0.0
230
1.0
 70
     8
 71
     3
 72
    31
 73
    27
 74
     0
 42
0.00000001
 43
0.00000001
 40
0.0
 40
0.0
 40
0.0
 40
0.0
 40
0.0431256223673022
 40
0.0859920462886922
 40
0.1288398981521187
 40
0.1729185784206108
 40
0.2184152326475229
 40
0.2653291226804481
 40
0.3014557337692938
 40
0.3383799668479517
 40
0.3755446495781999
 40
0.4123551937001765
 40
0.460870617822007
 40
0.5087614763604239
 40
0.5560307237731102
 40
0.6026809336667884
 40
0.6487214190750814
 40
0.6948562442195985
 40
0.741562335867851
 40
0.7888423160336869
 40
0.8366984545296979
 40
0.8729815304743963
 40
0.9095911060741253
 40
0.9465375751209845
 40
0.98389862734324
 40
1.0
 40
1.0
 40
1.0
 40
1.0
 10
10.77201745220256
 20
-3.0
 30
0.0
 10
10.70951175743724
 20
-3.003157030288532
 30
0.0
 10
10.58487604663435
 20
-3.009452116128552
 30
0.0
 10
10.40385220028834
 20
-3.055899706062748
 30
0.0
 10
10.22870165499511
 20
-3.125421048671382
 30
0.0
 10
10.05766342823659
 20
-3.224545585285223
 30
0.0
 10
9.892420559396164
 20
-3.353940904960735
 30
0.0
 10
9.749937747311805
 20
-3.500691274631115
 30
0.0
 10
9.630015462229396
 20
-3.65629843989123
 30
0.0
 10
9.531420586249986
 20
-3.812993110434951
 30
0.0
 10
9.445086169601794
 20
-3.983011337878514
 30
0.0
 10
9.364913747382747
 20
-4.182414486179032
 30
0.0
 10
9.297787850920033
 20
-4.41144379772491
 30
0.0
 10
9.25117846904225
 20
-4.668689781375972
 30
0.0
 10
9.231089027332535
 20
-4.92823747991524
 30
0.0
 10
9.236839383613251
 20
-5.185561383965985
 30
0.0
 10
9.267458532102651
 20
-5.437761565582803
 30
0.0
 10
9.322417776797606
 20
-5.682980601231511
 30
0.0
 10
9.401683442937063
 20
-5.919173980894588
 30
0.0
 10
9.504977356625057
 20
-6.142782688267066
 30
0.0
 10
9.62071971652413
 20
-6.331948632219741
 30
0.0
 10
9.741657413371705
 20
-6.488246037362574
 30
0.0
 10
9.862008105106922
 20
-6.615690333140251
 30
0.0
 10
9.993265342060692
 20
-6.726481334331649
 30
0.0
 10
10.10593185629646
 20
-6.806045420937877
 30
0.0
 10
10.17685425719086
 20
-6.841054388452692
 30
0.0
 10
10.198214081574
 20
-6.851598100855563
 30
0.0
  0
SPLINE
  5
2BC
330
23
100
AcDbEntity
  8
0
  6
Continuous
 62
     7
370
    25
100
AcDbSpline
210
0.0
220
0.0
230
1.0
 70
     8
 71
     3
 72
    25
 73
    21
 74
     0
 42
0.00000001
 43
0.00000001
 40
0.0
 40
0.0
 40
0.0
 40
0.0
 40
0.0547881839155202
 40
0.110047717618274
 40
0.1654099720458473
 40
0.2208958945498143
 40
0.2765132588853677
 40
0.3322581820593833
 40
0.3881180725079483
 40
0.4440751229886834
 40
0.5001095741571652
 40
0.5562022623405185
 40
0.6123362816377167
 40
0.6684978291205151
 40
0.7246764252710542
 40
0.7808647274824911
 40
0.8370572295847731
 40
0.8932520401037852
 40
0.9494489780859696
 40
0.9999999999999999
 40
0.9999999999999999
 40
0.9999999999999999
 40
0.9999999999999999
 10
11.35385341429384
 20
-6.975222369611787
 30
0.0
 10
11.39384807074344
 20
-6.965898964727828
 30
0.0
 10
11.47418146281191
 20
-6.947171944509508
 30
0.0
 10
11.59204379777955
 20
-6.903724980141283
 30
0.0
 10
11.70731034048946
 20
-6.849239068697794
 30
0.0
 10
11.81884559005752
 20
-6.782991772945787
 30
0.0
 10
11.92600460614111
 20
-6.705672132252174
 30
0.0
 10
12.02810384594322
 20
-6.617656271715315
 30
0.0
 10
12.12449680130045
 20
-6.519501875107983
 30
0.0
 10
12.2145655045356
 20
-6.411813070516668
 30
0.0
 10
12.29773397451944
 20
-6.295270372075962
 30
0.0
 10
12.37347347722949
 20
-6.170613462137898
 30
0.0
 10
12.44130793915894
 20
-6.038635434748485
 30
0.0
 10
12.50081471566991
 20
-5.90017399463508
 30
0.0
 10
12.55163294088129
 20
-5.756104153891693
 30
0.0
 10
12.59343795271296
 20
-5.607332425740967
 30
0.0
 10
12.62603868723796
 20
-5.454789155622082
 30
0.0
 10
12.64901646282203
 20
-5.299424800212869
 30
0.0
 10
12.66260118069489
 20
-5.147464866416439
 30
0.0
 10
12.66420560580486
 20
-5.047390641744647
 30
0.0
 10
12.66496538921405
 20
-5.0
 30
0.0
  0
SPLINE
  5
2BD
330
23
100
AcDbEntity
  8
0
  6
Continuous
 62
     7
370
    25
100
AcDbSpline
210
0.0
220
0.0
230
1.0
 70
     8
 71
     3
 72
    26
 73
    22
 74
     0
 42
0.00000001
 43
0.00000001
 40
0.0
 40
0.0
 40
0.0
 40
0.0
 40
0.0299337377246201
 40
0.0861890929272811
 40
0.1424615739668529
 40
0.1987424451518356
 40
0.2550328670539589
 40
0.3113330217646496
 40
0.3676416220145626
 40
0.4239541287592792
 40
0.4802633934892452
 40
0.5365592654309495
 40
0.5928278805636097
 40
0.6490515949332922
 40
0.7052094821826702
 40
0.7612786432215619
 40
0.8172364989799686
 40
0.8730640274351029
 40
0.9287495696836402
 40
0.9842924587650542
 40
1.0
 40
1.0
 40
1.0
 40
1.0
 10
12.66496538921405
 20
-5.0
 30
0.0
 10
12.66468993465862
 20
-4.971971375478915
 30
0.0
 10
12.66389681024181
 20
-4.891267731126312
 30
0.0
 10
12.65513620770639
 20
-4.758169312905666
 30
0.0
 10
12.63562494250861
 20
-4.601969601118247
 30
0.0
 10
12.60646465764132
 20
-4.448198338382745
 30
0.0
 10
12.56799036771848
 20
-4.297821349713693
 30
0.0
 10
12.52037765125995
 20
-4.15176981066804
 30
0.0
 10
12.46391347009547
 20
-4.010955621243017
 30
0.0
 10
12.39892393013718
 20
-3.876264275440012
 30
0.0
 10
12.32579378945584
 20
-3.748550597859479
 30
0.0
 10
12.24496103887266
 20
-3.628632483739537
 30
0.0
 10
12.1569184282312
 20
-3.517286206500923
 30
0.0
 10
12.06221356153374
 20
-3.415237363999598
 30
0.0
 10
11.9614468920197
 20
-3.323163219691786
 30
0.0
 10
11.8552740467928
 20
-3.2416464814299
 30
0.0
 10
11.74438318267652
 20
-3.171305527525324
 30
0.0
 10
11.62955326837811
 20
-3.112266931582462
 30
0.0
 10
11.5113971260191
 20
-3.066088815700031
 30
0.0
 10
11.41988773936976
 20
-3.037519429282341
 30
0.0
 10
11.36753777388112
 20
-3.02845539419843
 30
0.0
 10
11.35599694194636
 20
-3.026457178830419
 30
0.0
  0
SPLINE
  5
2C1
330
23
100
AcDbEntity
  8
0
  6
Continuous
 62
     7
370
    25
100
AcDbSpline
210
0.0
220
0.0
230
1.0
 70
     8
 71
     3
 72
     9
 73
     5
 74
     0
 42
0.00000001
 43
0.00000001
 40
0.0
 40
0.0
 40
0.0
 40
0.0
 40
0.0518506009607472
 40
1.0
 40
1.0
 40
1.0
 40
1.0
 10
11.54617365908322
 20
-3.023757290530788
 30
0.0
 10
11.54441936272705
 20
-3.024018241238737
 30
0.0
 10
11.51058568821471
 20
-3.029050983446449
 30
0.0
 10
11.47743602284301
 20
-3.039172838255914
 30
0.0
 10
11.44600518754248
 20
-3.048769868810673
 30
0.0
  0
SPLINE
  5
2C2
330
23
100
AcDbEntity
  8
0
  6
Continuous
 62
     7
370
    25
100
AcDbSpline
210
0.0
220
0.0
230
1.0
 70
     8
 71
     3
 72
     9
 73
     5
 74
     0
 42
0.00000001
 43
0.00000001
 40
0.0
 40
0.0
 40
0.0
 40
0.0
 40
0.6505216116382139
 40
1.0
 40
1.0
 40
1.0
 40
1.0
 10
11.44788369720433
 20
-6.951230131189325
 30
0.0
 10
11.46626601429367
 20
-6.957170535419123
 30
0.0
 10
11.49452382581058
 20
-6.966302290803602
 30
0.0
 10
11.5234590394582
 20
-6.971081214864918
 30
0.0
 10
11.53357127129067
 20
-6.972751345543967
 30
0.0
  0
SPLINE
  5
2C4
330
23
100
AcDbEntity
  8
0
  6
Continuous
 62
     7
370
    25
100
AcDbSpline
210
0.0
220
0.0
230
1.0
 70
     8
 71
     3
 72
    39
 73
    35
 74
     0
 42
0.00000001
 43
0.00000001
 40
0.0
 40
0.0
 40
0.0
 40
0.0
 40
0.0358083112096978
 40
0.0752360644423423
 40
0.1162078945292513
 40
0.1573741087654636
 40
0.1986771990258788
 40
0.2401166629186235
 40
0.281691495385177
 40
0.312549869505408
 40
0.3374882168255852
 40
0.3564854307266925
 40
0.3695526706175333
 40
0.3832270887889913
 40
0.399377194186978
 40
0.4198486069265527
 40
0.4446402422241878
 40
0.4737508088444502
 40
0.5070066005120982
 40
0.539922336571913
 40
0.5849368660154388
 40
0.6247442909780517
 40
0.65934398377585
 40
0.6887350484783501
 40
0.7148429223241484
 40
0.739585371043684
 40
0.7632503866165252
 40
0.7906692626709727
 40
0.8235689741550891
 40
0.8619524214849177
 40
0.90582311165987
 40
0.9530579250923048
 40
0.999973665284511
 40
1.0
 40
1.0
 40
1.0
 40
1.0
 10
12.27593414535829
 20
-6.989242214702236
 30
0.0
 10
12.32536865316874
 20
-6.980957332848251
 30
0.0
 10
12.42923442314383
 20
-6.963550147644421
 30
0.0
 10
12.58411118422259
 20
-6.910682087015822
 30
0.0
 10
12.74015455104138
 20
-6.835804156071492
 30
0.0
 10
12.89133341706183
 20
-6.73694146272082
 30
0.0
 10
13.03376662901191
 20
-6.616813622237243
 30
0.0
 10
13.16557931649328
 20
-6.476468579214397
 30
0.0
 10
13.27465120786932
 20
-6.331323059861132
 30
0.0
 10
13.35817866847303
 20
-6.196219870669343
 30
0.0
 10
13.41620751899081
 20
-6.086569183353353
 30
0.0
 10
13.45656298267889
 20
-5.999803263893152
 30
0.0
 10
13.48661889248171
 20
-5.928470360162502
 30
0.0
 10
13.51293563595524
 20
-5.860360754752717
 30
0.0
 10
13.54132602167586
 20
-5.778973854272765
 30
0.0
 10
13.57221131905593
 20
-5.677494827351341
 30
0.0
 10
13.60384913810192
 20
-5.551858145341045
 30
0.0
 10
13.63272382173564
 20
-5.401500901318609
 30
0.0
 10
13.65365540436294
 20
-5.234209287241015
 30
0.0
 10
13.66478350146062
 20
-5.036990655355762
 30
0.0
 10
13.65979976455258
 20
-4.82740315103695
 30
0.0
 10
13.63635756735596
 20
-4.617079410921805
 30
0.0
 10
13.60213383354051
 20
-4.437883905675082
 30
0.0
 10
13.56236951079274
 20
-4.28624034021213
 30
0.0
 10
13.5193541496384
 20
-4.154971243243883
 30
0.0
 10
13.47313704059686
 20
-4.036861000658322
 30
0.0
 10
13.4202382237153
 20
-3.920825886439274
 30
0.0
 10
13.35500409832159
 20
-3.797763545201393
 30
0.0
 10
13.26962062815374
 20
-3.661505860533066
 30
0.0
 10
13.15872302932411
 20
-3.515682871574977
 30
0.0
 10
13.02113280912585
 20
-3.36953727403053
 30
0.0
 10
12.85990955841396
 20
-3.24156264710995
 30
0.0
 10
12.74441906936268
 20
-3.163317808210703
 30
0.0
 10
12.68285468848875
 20
-3.137658231411755
 30
0.0
 10
12.68282015059374
 20
-3.137643836273579
 30
0.0
  0
SPLINE
  5
2C5
330
23
100
AcDbEntity
  8
0
  6
Continuous
 62
     7
370
    25
100
AcDbSpline
210
0.0
220
0.0
230
1.0
 70
     8
 71
     3
 72
     9
 73
     5
 74
     0
 42
0.00000001
 43
0.00000001
 40
0.0
 40
0.0
 40
0.0
 40
0.0
 40
0.958894672276498
 40
1.0
 40
1.0
 40
1.0
 40
1.0
 10
12.12187143254426
 20
-7.000000000000001
 30
0.0
 10
12.1716089028568
 20
-6.999794328720879
 30
0.0
 10
12.22347848952835
 20
-6.999579840847426
 30
0.0
 10
12.27386307063951
 20
-6.989650368900726
 30
0.0
 10
12.27593414535829
 20
-6.989242214702236
 30
0.0
  0
SPLINE
  5
2D4
330
23
100
AcDbEntity
  8
0
  6
Continuous
 62
     7
370
    25
100
AcDbSpline
210
0.0
220
0.0
230
1.0
 70
    11
 71
     3
 72
    70
 73
    66
 74
     0
 42
0.00000001
 43
0.00000001
 40
0.0
 40
0.0
 40
0.0
 40
0.0
 40
0.03125
 40
0.03125
 40
0.0625
 40
0.0625
 40
0.09375
 40
0.09375
 40
0.125
 40
0.125
 40
0.15625
 40
0.15625
 40
0.1875
 40
0.1875
 40
0.21875
 40
0.21875
 40
0.25
 40
0.25
 40
0.28125
 40
0.28125
 40
0.3125
 40
0.3125
 40
0.34375
 40
0.34375
 40
0.375
 40
0.375
 40
0.40625
 40
0.40625
 40
0.4375
 40
0.4375
 40
0.46875
 40
0.46875
 40
0.5
 40
0.5
 40
0.53125
 40
0.53125
 40
0.5625
 40
0.5625
 40
0.59375
 40
0.59375
 40
0.625
 40
0.625
 40
0.65625
 40
0.65625
 40
0.6875
 40
0.6875
 40
0.71875
 40
0.71875
 40
0.75
 40
0.75
 40
0.78125
 40
0.78125
 40
0.8125
 40
0.8125
 40
0.84375
 40
0.84375
 40
0.875
 40
0.875
 40
0.90625
 40
0.90625
 40
0.9375
 40
0.9375
 40
0.96875
 40
0.96875
 40
1.0
 40
1.0
 40
1.0
 40
1.0
 10
-11.64922455489047
 20
-5.0
 30
0.0
 10
-11.64922455489046
 20
-4.918187691325173
 30
0.0
 10
-11.64305206764011
 20
-4.83637740558282
 30
0.0
 10
-11.61859871920784
 20
-4.67589678937686
 30
0.0
 10
-11.60031846267735
 20
-4.597230427035166
 30
0.0
 10
-11.55235149428521
 20
-4.446060992052108
 30
0.0
 10
-11.5226659684799
 20
-4.37356165729969
 30
0.0
 10
-11.45302872382023
 20
-4.237512760151303
 30
0.0
 10
-11.41307872685043
 20
-4.173966561764191
 30
0.0
 10
-11.32444732618231
 20
-4.058266485269439
 30
0.0
 10
-11.2757681140287
 20
-4.006115468015688
 30
0.0
 10
-11.17154861237224
 20
-3.915210501227949
 30
0.0
 10
-11.11601089985619
 20
-3.876458799454027
 30
0.0
 10
-11.00020839421972
 20
-3.813842369267754
 30
0.0
 10
-10.93994646448661
 20
-3.789979189140288
 30
0.0
 10
-10.81701118021373
 20
-3.758057609851634
 30
0.0
 10
-10.75434086542994
 20
-3.75
 30
0.0
 10
-10.62899713655353
 20
-3.75
 30
0.0
 10
-10.56632682176974
 20
-3.758057609852202
 30
0.0
 10
-10.44339153749686
 20
-3.789979189139722
 30
0.0
 10
-10.38312960776549
 20
-3.813842369267754
 30
0.0
 10
-10.26732710212554
 20
-3.876458799454027
 30
0.0
 10
-10.21178938960986
 20
-3.915210501228196
 30
0.0
 10
-10.10756988795614
 20
-4.006115468015439
 30
0.0
 10
-10.05889067580147
 20
-4.058266485269032
 30
0.0
 10
-9.97025927513273
 20
-4.173966561764598
 30
0.0
 10
-9.930309278163485
 20
-4.237512760150826
 30
0.0
 10
-9.86067203350333
 20
-4.373561657300169
 30
0.0
 10
-9.83098650769843
 20
-4.446060992052711
 30
0.0
 10
-9.783019539305947
 20
-4.597230427034559
 30
0.0
 10
-9.764739282773972
 20
-4.675896789376863
 30
0.0
 10
-9.740285934345017
 20
-4.836377405582816
 30
0.0
 10
-9.734113447093002
 20
-4.918187691325746
 30
0.0
 10
-9.734113447092998
 20
-5.081812308674255
 30
0.0
 10
-9.740285934343278
 20
-5.163622594417751
 30
0.0
 10
-9.764739282775711
 20
-5.324103210622568
 30
0.0
 10
-9.783019539305943
 20
-5.402769572965435
 30
0.0
 10
-9.830986507698432
 20
-5.553939007947289
 30
0.0
 10
-9.860672033503334
 20
-5.626438342699828
 30
0.0
 10
-9.930309278163483
 20
-5.762487239849174
 30
0.0
 10
-9.970259275134469
 20
-5.826033438234835
 30
0.0
 10
-10.05889067579973
 20
-5.941733514731538
 30
0.0
 10
-10.10756988795688
 20
-5.993884531984634
 30
0.0
 10
-10.21178938960912
 20
-6.08478949877173
 30
0.0
 10
-10.26732710212769
 20
-6.123541200546192
 30
0.0
 10
-10.38312960776333
 20
-6.186157630732024
 30
0.0
 10
-10.4433915374973
 20
-6.210020810859256
 30
0.0
 10
-10.56632682176931
 20
-6.241942390148821
 30
0.0
 10
-10.62899713655223
 20
-6.25
 30
0.0
 10
-10.75434086543124
 20
-6.25
 30
0.0
 10
-10.81701118021416
 20
-6.241942390147685
 30
0.0
 10
-10.93994646448618
 20
-6.210020810860392
 30
0.0
 10
-11.00020839421839
 20
-6.186157630732026
 30
0.0
 10
-11.11601089985752
 20
-6.123541200546196
 30
0.0
 10
-11.17154861237261
 20
-6.084789498771735
 30
0.0
 10
-11.27576811402833
 20
-5.993884531984636
 30
0.0
 10
-11.32444732618262
 20
-5.941733514730723
 30
0.0
 10
-11.41307872685011
 20
-5.826033438235652
 30
0.0
 10
-11.45302872382048
 20
-5.762487239849354
 30
0.0
 10
-11.52266596847965
 20
-5.626438342699653
 30
0.0
 10
-11.55235149428538
 20
-5.553939007947359
 30
0.0
 10
-11.60031846267719
 20
-5.402769572965372
 30
0.0
 10
-11.61859871920967
 20
-5.324103210622577
 30
0.0
 10
-11.64305206763828
 20
-5.163622594417748
 30
0.0
 10
-11.64922455489047
 20
-5.081812308674828
 30
0.0
 10
-11.64922455489047
 20
-5.0
 30
0.0
  0
SPLINE
  5
2D5
330
23
100
AcDbEntity
  8
0
  6
Continuous
 62
     7
370
    25
100
AcDbSpline
210
0.0
220
0.0
230
1.0
 70
     8
 71
     3
 72
    10
 73
     6
 74
     0
 42
0.00000001
 43
0.00000001
 40
0.0
 40
0.0
 40
0.0
 40
0.0
 40
0.3097001857068981
 40
0.6548500928534491
 40
1.0
 40
1.0
 40
1.0
 40
1.0
 10
-10.20520347980477
 20
-3.143603937712586
 30
0.0
 10
-10.26151460078285
 20
-3.116591566485848
 30
0.0
 10
-10.38058247514336
 20
-3.059474862581886
 30
0.0
 10
-10.57160250548868
 20
-3.010361435909475
 30
0.0
 10
-10.7052124699646
 20
-3.003453811969826
 30
0.0
 10
-10.77201745220255
 20
-3.0
 30
0.0
  0
LWPOLYLINE
  5
2D8
330
23
100
AcDbEntity
  8
0
  6
Continuous
 62
     7
370
    25
100
AcDbPolyline
 90
       10
 70
   128
 43
0.0
 10
-11.0268134449
 20
-5.0
 10
-11.0214275358
 20
-4.9218813585
 10
-11.005442916
 20
-4.8462735145
 10
-10.9793733445
 20
-4.7756065661
 10
-10.9440567187
 20
-4.7121518074
 10
-10.9006281439
 20
-4.6579487264
 10
-10.8504834503
 20
-4.6147394548
 10
-10.7952343297
 20
-4.5839127741
 10
-10.7366565342
 20
-4.5664594792
 10
-10.691669001
 20
-4.5625
  0
LWPOLYLINE
  5
2D9
330
23
100
AcDbEntity
  8
0
  6
Continuous
 62
     7
370
    25
100
AcDbPolyline
 90
       10
 70
   128
 43
0.0
 10
-10.691669001
 20
-5.4375
 10
-10.7366565342
 20
-5.4335405208
 10
-10.7952343297
 20
-5.4160872259
 10
-10.8504834503
 20
-5.3852605452
 10
-10.9006281439
 20
-5.3420512736
 10
-10.9440567187
 20
-5.2878481926
 10
-10.9793733445
 20
-5.2243934339
 10
-11.005442916
 20
-5.1537264855
 10
-11.0214275358
 20
-5.0781186415
 10
-11.0268134449
 20
-5.0
  0
LWPOLYLINE
  5
2DA
330
23
100
AcDbEntity
  8
0
  6
Continuous
 62
     7
370
    25
100
AcDbPolyline
 90
       18
 70
   128
 43
0.0
 10
-12.1481759122
 20
-3.5030461385
 10
-12.2251842535
 20
-3.5916474037
 10
-12.3128567417
 20
-3.7093440247
 10
-12.3925819043
 20
-3.8363068207
 10
-12.4637873601
 20
-3.971624271
 10
-12.5259618944
 20
-4.1143248735
 10
-12.5786591294
 20
-4.2633841189
 10
-12.6215007292
 20
-4.417731847
 10
-12.6541791153
 20
-4.5762599288
 10
-12.6764596755
 20
-4.7378302229
 10
-12.6881824482
 20
-4.9012827468
 10
-12.6892632704
 20
-5.0654440044
 10
-12.6796943825
 20
-5.2291354113
 10
-12.6595444838
 20
-5.3911817564
 10
-12.6289582388
 20
-5.5504196392
 10
-12.5881552396
 20
-5.7057058225
 10
-12.5374284283
 20
-5.8559254399
 10
-12.4771419947
 20
-6.0
  0
LWPOLYLINE
  5
2DC
330
23
100
AcDbEntity
  8
0
  6
Continuous
 62
     7
370
    25
100
AcDbPolyline
 90
       26
 70
   128
 43
0.0
 10
-11.687989796
 20
-3.0625
 10
-11.8050559299
 20
-3.0685361489
 10
-11.9298908054
 20
-3.0884065135
 10
-12.0529889694
 20
-3.1220010306
 10
-12.1734666472
 20
-3.1690785109
 10
-12.2904588777
 20
-3.2293009649
 10
-12.4031257233
 20
-3.3022360296
 10
-12.5106583001
 20
-3.3873600728
 10
-12.6122845855
 20
-3.4840619523
 10
-12.7072749608
 20
-3.5916474037
 10
-12.7949474489
 20
-3.7093440247
 10
-12.8746726116
 20
-3.8363068207
 10
-12.9458780673
 20
-3.971624271
 10
-13.0080526016
 20
-4.1143248735
 10
-13.0607498367
 20
-4.2633841189
 10
-13.1035914364
 20
-4.417731847
 10
-13.1362698225
 20
-4.5762599288
 10
-13.1585503828
 20
-4.7378302229
 10
-13.1702731554
 20
-4.9012827468
 10
-13.1713539777
 20
-5.0654440044
 10
-13.1617850898
 20
-5.2291354113
 10
-13.141635191
 20
-5.3911817564
 10
-13.1110489461
 20
-5.5504196392
 10
-13.0702459469
 20
-5.7057058225
 10
-13.0195191356
 20
-5.8559254399
 10
-12.9592327019
 20
-6.0
  0
LWPOLYLINE
  5
2DE
330
23
100
AcDbEntity
  8
0
  6
Continuous
 62
     7
370
    25
100
AcDbPolyline
 90
       36
 70
   128
 43
0.0
 10
-11.0139576927
 20
-5.0
 10
-11.0085717836
 20
-5.0781186415
 10
-10.9925871638
 20
-5.1537264855
 10
-10.9665175923
 20
-5.2243934339
 10
-10.9312009665
 20
-5.2878481926
 10
-10.8877723917
 20
-5.3420512736
 10
-10.8376276981
 20
-5.3852605452
 10
-10.7823785775
 20
-5.4160872259
 10
-10.723800782
 20
-5.4335405208
 10
-10.6637770502
 20
-5.4370594666
 10
-10.6042365941
 20
-5.4265309616
 10
-10.5470930931
 20
-5.4022934005
 10
-10.4941831863
 20
-5.3651257985
 10
-10.4472074416
 20
-5.3162227529
 10
-10.4076756981
 20
-5.2571560479
 10
-10.3768585386
 20
-5.1898241359
 10
-10.3557464519
 20
-5.1163911199
 10
-10.3450179979
 20
-5.0392171976
 10
-10.3450179979
 20
-4.9607828024
 10
-10.3557464519
 20
-4.8836088801
 10
-10.3768585386
 20
-4.8101758641
 10
-10.4076756981
 20
-4.7428439521
 10
-10.4472074416
 20
-4.6837772471
 10
-10.4941831863
 20
-4.6348742015
 10
-10.5470930931
 20
-4.5977065995
 10
-10.6042365941
 20
-4.5734690384
 10
-10.6637770502
 20
-4.5629405334
 10
-10.723800782
 20
-4.5664594792
 10
-10.7823785775
 20
-4.5839127741
 10
-10.8376276981
 20
-4.6147394548
 10
-10.8877723917
 20
-4.6579487264
 10
-10.9312009665
 20
-4.7121518074
 10
-10.9665175923
 20
-4.7756065661
 10
-10.9925871638
 20
-4.8462735145
 10
-11.0085717836
 20
-4.9218813585
 10
-11.0139576927
 20
-5.0
  0
SPLINE
  5
2E1
330
23
100
AcDbEntity
  8
0
  6
Continuous
 62
     7
370
    25
100
AcDbSpline
210
0.0
220
0.0
230
1.0
 70
     8
 71
     3
 72
    10
 73
     6
 74
     0
 42
0.00000001
 43
0.00000001
 40
0.0
 40
0.0
 40
0.0
 40
0.0
 40
0.354555369481469
 40
0.7091107389629384
 40
1.0
 40
1.0
 40
1.0
 40
1.0
 10
-12.12187143254426
 20
-7.000000000000001
 30
0.0
 10
-12.18867009545888
 20
-6.996519999474968
 30
0.0
 10
-12.32226742128811
 20
-6.989559998424901
 30
0.0
 10
-12.50830928676595
 20
-6.942118742904807
 30
0.0
 10
-12.62259407468311
 20
-6.8874826546346
 30
0.0
 10
-12.67409999158615
 20
-6.862859239098384
 30
0.0
  0
SPLINE
  5
2E2
330
23
100
AcDbEntity
  8
0
  6
Continuous
 62
     7
370
    25
100
AcDbSpline
210
0.0
220
0.0
230
1.0
 70
    11
 71
     3
 72
    39
 73
    35
 74
     0
 42
0.00000001
 43
0.00000001
 40
0.0
 40
0.0
 40
0.0
 40
0.0
 40
0.03125
 40
0.0625
 40
0.09375
 40
0.1249999999999999
 40
0.15625
 40
0.1875000000000002
 40
0.21875
 40
0.25
 40
0.2812500000000001
 40
0.3124999999999998
 40
0.3437500000000001
 40
0.3750000000000002
 40
0.4062499999999999
 40
0.4374999999999999
 40
0.46875
 40
0.5000000000000001
 40
0.53125
 40
0.5624999999999999
 40
0.5937499999999999
 40
0.6250000000000004
 40
0.6562499999999998
 40
0.6874999999999994
 40
0.7187499999999998
 40
0.7500000000000002
 40
0.78125
 40
0.8124999999999998
 40
0.8437500000000002
 40
0.8749999999999996
 40
0.9062500000000001
 40
0.9374999999999998
 40
0.9687499999999999
 40
1.0
 40
1.0
 40
1.0
 40
1.0
 10
11.64922455489047
 20
-5.0
 30
0.0
 10
11.64922455489047
 20
-4.918188369983103
 30
0.0
 10
11.63687937753908
 20
-4.754565109949313
 30
0.0
 10
11.58203770682137
 20
-4.518562145081797
 30
0.0
 10
11.49297966606315
 20
-4.301060566985329
 30
0.0
 10
11.37312770582643
 20
-4.110418839329865
 30
0.0
 10
11.22708766972936
 20
-3.953963216796094
 30
0.0
 10
11.06047179445895
 20
-3.837706201216662
 30
0.0
 10
10.87968303466258
 20
-3.766115484502603
 30
0.0
 10
10.69166900099173
 20
-3.741942257748698
 30
0.0
 10
10.50365496732089
 20
-3.766115484502601
 30
0.0
 10
10.32286620752452
 20
-3.837706201216662
 30
0.0
 10
10.15625033225411
 20
-3.953963216796092
 30
0.0
 10
10.01021029615704
 20
-4.110418839329865
 30
0.0
 10
9.890358335920325
 20
-4.301060566985331
 30
0.0
 10
9.801300295162102
 20
-4.518562145081794
 30
0.0
 10
9.746458624444392
 20
-4.75456510994931
 30
0.0
 10
9.727940858417304
 20
-4.999999999999998
 30
0.0
 10
9.746458624444394
 20
-5.24543489005069
 30
0.0
 10
9.801300295162102
 20
-5.481437854918202
 30
0.0
 10
9.890358335920325
 20
-5.698939433014671
 30
0.0
 10
10.01021029615704
 20
-5.889581160670131
 30
0.0
 10
10.15625033225411
 20
-6.046036783203906
 30
0.0
 10
10.32286620752452
 20
-6.162293798783336
 30
0.0
 10
10.50365496732088
 20
-6.2338845154974
 30
0.0
 10
10.69166900099174
 20
-6.258057742251299
 30
0.0
 10
10.87968303466258
 20
-6.233884515497404
 30
0.0
 10
11.06047179445895
 20
-6.162293798783336
 30
0.0
 10
11.22708766972936
 20
-6.046036783203911
 30
0.0
 10
11.37312770582643
 20
-5.889581160670135
 30
0.0
 10
11.49297966606314
 20
-5.698939433014674
 30
0.0
 10
11.58203770682136
 20
-5.481437854918202
 30
0.0
 10
11.63687937753908
 20
-5.245434890050697
 30
0.0
 10
11.64922455489047
 20
-5.081811630016897
 30
0.0
 10
11.64922455489047
 20
-5.0
 30
0.0
  0
SPLINE
  5
2E3
330
23
100
AcDbEntity
  8
0
  6
Continuous
 62
     7
370
    25
100
AcDbSpline
210
0.0
220
0.0
230
1.0
 70
     8
 71
     3
 72
    10
 73
     6
 74
     0
 42
0.00000001
 43
0.00000001
 40
0.0
 40
0.0
 40
0.0
 40
0.0
 40
0.3451499071455065
 40
0.6902998142910134
 40
1.0
 40
1.0
 40
1.0
 40
1.0
 10
10.77201745220255
 20
-7.000000000000003
 30
0.0
 10
10.70521246996459
 20
-6.996546188030179
 30
0.0
 10
10.57160250548868
 20
-6.989638564090535
 30
0.0
 10
10.38058247514279
 20
-6.940525137417931
 30
0.0
 10
10.26151460078173
 20
-6.883408433513687
 30
0.0
 10
10.20520347980311
 20
-6.856396062286676
 30
0.0
  0
LWPOLYLINE
  5
2E6
330
23
100
AcDbEntity
  8
0
  6
Continuous
 62
     7
370
    25
100
AcDbPolyline
 90
       10
 70
   128
 43
0.0
 10
11.0268134449
 20
-5.0
 10
11.0214275358
 20
-4.9218813585
 10
11.005442916
 20
-4.8462735145
 10
10.9793733445
 20
-4.7756065661
 10
10.9440567187
 20
-4.7121518074
 10
10.9006281439
 20
-4.6579487264
 10
10.8504834503
 20
-4.6147394548
 10
10.7952343297
 20
-4.5839127741
 10
10.7366565342
 20
-4.5664594792
 10
10.691669001
 20
-4.5625
  0
LWPOLYLINE
  5
2E7
330
23
100
AcDbEntity
  8
0
  6
Continuous
 62
     7
370
    25
100
AcDbPolyline
 90
       10
 70
   128
 43
0.0
 10
10.691669001
 20
-5.4375
 10
10.7366565342
 20
-5.4335405208
 10
10.7952343297
 20
-5.4160872259
 10
10.8504834503
 20
-5.3852605452
 10
10.9006281439
 20
-5.3420512736
 10
10.9440567187
 20
-5.2878481926
 10
10.9793733445
 20
-5.2243934339
 10
11.005442916
 20
-5.1537264855
 10
11.0214275358
 20
-5.0781186415
 10
11.0268134449
 20
-5.0
  0
LWPOLYLINE
  5
2E9
330
23
100
AcDbEntity
  8
0
  6
Continuous
 62
     7
370
    25
100
AcDbPolyline
 90
       18
 70
   128
 43
0.0
 10
12.159053175
 20
-3.5148274488
 10
12.2251842535
 20
-3.5916474037
 10
12.3128567417
 20
-3.7093440247
 10
12.3925819043
 20
-3.8363068207
 10
12.4637873601
 20
-3.971624271
 10
12.5259618944
 20
-4.1143248735
 10
12.5786591294
 20
-4.2633841189
 10
12.6215007292
 20
-4.417731847
 10
12.6541791153
 20
-4.5762599288
 10
12.6764596755
 20
-4.7378302229
 10
12.6881824482
 20
-4.9012827468
 10
12.6892632704
 20
-5.0654440044
 10
12.6796943825
 20
-5.2291354113
 10
12.6595444838
 20
-5.3911817564
 10
12.6289582388
 20
-5.5504196392
 10
12.5881552396
 20
-5.7057058225
 10
12.5374284283
 20
-5.8559254399
 10
12.4771419947
 20
-6.0
  0
LWPOLYLINE
  5
2EA
330
23
100
AcDbEntity
  8
0
  6
Continuous
 62
     7
370
    25
100
AcDbPolyline
 90
       26
 70
   128
 43
0.0
 10
11.687989796
 20
-3.0625
 10
11.8050559299
 20
-3.0685361489
 10
11.9298908054
 20
-3.0884065135
 10
12.0529889694
 20
-3.1220010306
 10
12.1734666472
 20
-3.1690785109
 10
12.2904588777
 20
-3.2293009649
 10
12.4031257233
 20
-3.3022360296
 10
12.5106583001
 20
-3.3873600728
 10
12.6122845855
 20
-3.4840619523
 10
12.7072749608
 20
-3.5916474037
 10
12.7949474489
 20
-3.7093440247
 10
12.8746726116
 20
-3.8363068207
 10
12.9458780673
 20
-3.971624271
 10
13.0080526016
 20
-4.1143248735
 10
13.0607498367
 20
-4.2633841189
 10
13.1035914364
 20
-4.417731847
 10
13.1362698225
 20
-4.5762599288
 10
13.1585503828
 20
-4.7378302229
 10
13.1702731554
 20
-4.9012827468
 10
13.1713539777
 20
-5.0654440044
 10
13.1617850898
 20
-5.2291354113
 10
13.141635191
 20
-5.3911817564
 10
13.1110489461
 20
-5.5504196392
 10
13.0702459469
 20
-5.7057058225
 10
13.0195191356
 20
-5.8559254399
 10
12.9592327019
 20
-6.0
  0
LWPOLYLINE
  5
2EC
330
23
100
AcDbEntity
  8
0
  6
Continuous
 62
     7
370
    25
100
AcDbPolyline
 90
       36
 70
   128
 43
0.0
 10
11.0139576927
 20
-5.0
 10
11.0085717836
 20
-5.0781186415
 10
10.9925871638
 20
-5.1537264855
 10
10.9665175923
 20
-5.2243934339
 10
10.9312009665
 20
-5.2878481926
 10
10.8877723917
 20
-5.3420512736
 10
10.8376276981
 20
-5.3852605452
 10
10.7823785775
 20
-5.4160872259
 10
10.723800782
 20
-5.4335405208
 10
10.6637770502
 20
-5.4370594666
 10
10.6042365941
 20
-5.4265309616
 10
10.5470930931
 20
-5.4022934005
 10
10.4941831863
 20
-5.3651257985
 10
10.4472074416
 20
-5.3162227529
 10
10.4076756981
 20
-5.2571560479
 10
10.3768585386
 20
-5.1898241359
 10
10.3557464519
 20
-5.1163911199
 10
10.3450179979
 20
-5.0392171976
 10
10.3450179979
 20
-4.9607828024
 10
10.3557464519
 20
-4.8836088801
 10
10.3768585386
 20
-4.8101758641
 10
10.4076756981
 20
-4.7428439521
 10
10.4472074416
 20
-4.6837772471
 10
10.4941831863
 20
-4.6348742015
 10
10.5470930931
 20
-4.5977065995
 10
10.6042365941
 20
-4.5734690384
 10
10.6637770502
 20
-4.5629405334
 10
10.723800782
 20
-4.5664594792
 10
10.7823785775
 20
-4.5839127741
 10
10.8376276981
 20
-4.6147394548
 10
10.8877723917
 20
-4.6579487264
 10
10.9312009665
 20
-4.7121518074
 10
10.9665175923
 20
-4.7756065661
 10
10.9925871638
 20
-4.8462735145
 10
11.0085717836
 20
-4.9218813585
 10
11.0139576927
 20
-5.0
  0
SPLINE
  5
2EF
330
23
100
AcDbEntity
  8
0
  6
Continuous
 62
     7
370
    25
100
AcDbSpline
210
0.0
220
0.0
230
1.0
 70
     8
 71
     3
 72
    10
 73
     6
 74
     0
 42
0.00000001
 43
0.00000001
 40
0.0
 40
0.0
 40
0.0
 40
0.0
 40
0.2908892610361355
 40
0.6454446305180679
 40
0.9999999999999999
 40
0.9999999999999999
 40
0.9999999999999999
 40
0.9999999999999999
 10
12.67409999158545
 20
-3.137140760901306
 30
0.0
 10
12.62259407468265
 20
-3.112517345365206
 30
0.0
 10
12.50830928676571
 20
-3.057881257095119
 30
0.0
 10
12.32226742128811
 20
-3.010440001575104
 30
0.0
 10
12.18867009545888
 20
-3.003480000525034
 30
0.0
 10
12.12187143254426
 20
-3.0
 30
0.0
  0
SPLINE
  5
2FE
330
23
100
AcDbEntity
  8
0
  6
Continuous
 62
     7
370
    25
100
AcDbSpline
210
0.0
220
0.0
230
1.0
 70
     8
 71
     3
 72
    22
 73
    18
 74
     0
 42
0.00000001
 43
0.00000001
 40
0.0
 40
0.0
 40
0.0
 40
0.0
 40
0.125
 40
0.125
 40
0.25
 40
0.25
 40
0.375
 40
0.375
 40
0.5
 40
0.5
 40
0.625
 40
0.625
 40
0.75
 40
0.75
 40
0.875
 40
0.875
 40
1.0
 40
1.0
 40
1.0
 40
1.0
 10
-10.7720174522025
 20
-7.000000000000001
 30
0.0
 10
-10.87229243530675
 20
-7.000000000000007
 30
0.0
 10
-10.97256493895931
 20
-6.987107824236511
 30
0.0
 10
-11.16926139379268
 20
-6.936033297376443
 30
0.0
 10
-11.26568048136566
 20
-6.897852209171729
 30
0.0
 10
-11.45096449038728
 20
-6.797665920873462
 30
0.0
 10
-11.53982483041233
 20
-6.735663198036299
 30
0.0
 10
-11.70657603306067
 20
-6.590215251173949
 30
0.0
 10
-11.78446277250769
 20
-6.506773623569524
 30
0.0
 10
-11.9262730135762
 20
-6.32165350117673
 30
0.0
 10
-11.99019300872845
 20
-6.219979583758174
 30
0.0
 10
-12.10161260018328
 20
-6.002301348320298
 30
0.0
 10
-12.14910944147233
 20
-5.886302412715991
 30
0.0
 10
-12.22585659089932
 20
-5.64443131674441
 30
0.0
 10
-12.25510500135093
 20
-5.518565136996005
 30
0.0
 10
-12.29423035883735
 20
-5.261796151068535
 30
0.0
 10
-12.30410633844053
 20
-5.130899693879501
 30
0.0
 10
-12.30410633844053
 20
-5.0
 30
0.0
  0
SPLINE
  5
2FF
330
23
100
AcDbEntity
  8
0
  6
Continuous
 62
     7
370
    25
100
AcDbSpline
210
0.0
220
0.0
230
1.0
 70
     8
 71
     3
 72
    38
 73
    34
 74
     0
 42
0.00000001
 43
0.00000001
 40
0.0
 40
0.0
 40
0.0
 40
0.0
 40
0.0625
 40
0.0625
 40
0.1249999999999999
 40
0.1249999999999999
 40
0.1874999999999999
 40
0.1874999999999999
 40
0.2499999999999998
 40
0.2499999999999998
 40
0.3124999999999998
 40
0.3124999999999998
 40
0.3749999999999997
 40
0.3749999999999997
 40
0.4374999999999997
 40
0.4374999999999997
 40
0.4999999999999996
 40
0.4999999999999996
 40
0.5624999999999996
 40
0.5624999999999996
 40
0.6249999999999994
 40
0.6249999999999994
 40
0.6874999999999993
 40
0.6874999999999993
 40
0.7499999999999993
 40
0.7499999999999993
 40
0.8124999999999993
 40
0.8124999999999993
 40
0.8749999999999992
 40
0.8749999999999992
 40
0.9374999999999996
 40
0.9374999999999996
 40
1.0
 40
1.0
 40
1.0
 40
1.0
 10
-12.30410633844053
 20
-5.0
 30
0.0
 10
-12.30410633844053
 20
-5.19634954081967
 30
0.0
 10
-12.2817918370137
 20
-5.392672458581425
 30
0.0
 10
-12.19446703124341
 20
-5.768461758916902
 30
0.0
 10
-12.12946749804625
 20
-5.947881789462698
 30
0.0
 10
-11.96233811086334
 20
-6.274399142619926
 30
0.0
 10
-11.86023091796582
 20
-6.421452192714832
 30
0.0
 10
-11.6276902674006
 20
-6.670577660092102
 30
0.0
 10
-11.49728549263957
 20
-6.772619348801104
 30
0.0
 10
-11.21935947910625
 20
-6.922898781247922
 30
0.0
 10
-11.07187592435245
 20
-6.9711161485818
 30
0.0
 10
-10.77249976098217
 20
-7.009607359798432
 30
0.0
 10
-10.62064407915107
 20
-6.999876455951503
 30
0.0
 10
-10.32559939689561
 20
-6.923264665658449
 30
0.0
 10
-10.18245040160559
 20
-6.85639416701248
 30
0.0
 10
-9.917146687188934
 20
-6.671277244567377
 30
0.0
 10
-9.795024692157613
 20
-6.553053654160085
 30
0.0
 10
-9.582309330557688
 20
-6.275373470571776
 30
0.0
 10
-9.491744806080742
 20
-6.115954528066756
 30
0.0
 10
-9.34993701631858
 20
-5.769625125381862
 30
0.0
 10
-9.298711242423284
 20
-5.582757383467817
 30
0.0
 10
-9.240023206194877
 20
-5.197603904571844
 30
0.0
 10
-9.23256890137796
 20
-4.99937039058504
 30
0.0
 10
-9.262054879842134
 20
-4.60856256466927
 30
0.0
 10
-9.29899152615242
 20
-4.416036457233927
 30
0.0
 10
-9.41411225029506
 20
-4.053229813277618
 30
0.0
 10
-9.492280718898293
 20
-3.882998469741368
 30
0.0
 10
-9.68312189882451
 20
-3.579438209429465
 30
0.0
 10
-9.795771070695364
 20
-3.446146735528203
 30
0.0
 10
-10.0458978746644
 20
-3.227974815241906
 30
0.0
 10
-10.1833415920504
 20
-3.14312395080404
 30
0.0
 10
-10.47121289735586
 20
-3.029129512816356
 30
0.0
 10
-10.62160497756554
 20
-2.999999999998002
 30
0.0
 10
-10.77201745221808
 20
-3.0
 30
0.0
  0
LWPOLYLINE
  5
300
330
23
100
AcDbEntity
  8
0
  6
Continuous
 62
     7
370
    25
100
AcDbPolyline
 90
       18
 70
   128
 43
0.0
 10
-12.6415698335
 20
-5.0
 10
-12.6361965822
 20
-4.8326443133
 10
-12.6201145176
 20
-4.6664625066
 10
-12.5934364439
 20
-4.5026202257
 10
-12.5563494886
 20
-4.3422667065
 10
-12.50911379
 20
-4.1865267138
 10
-12.4520606727
 20
-4.0364926518
 10
-12.3855903233
 20
-3.8932169015
 10
-12.3101689835
 20
-3.7577044394
 10
-12.2263256798
 20
-3.6309057881
 10
-12.1346485127
 20
-3.513710349
 10
-12.0357805318
 20
-3.406940164
 10
-11.9304152248
 20
-3.311344149
 10
-11.8192916537
 20
-3.2275928415
 10
-11.7031892705
 20
-3.1562736968
 10
-11.58292245
 20
-3.0978869674
 10
-11.4593347775
 20
-3.0528421943
 10
-11.3397857455
 20
-3.0227254488
  0
LWPOLYLINE
  5
301
330
23
100
AcDbEntity
  8
0
  6
Continuous
 62
     7
370
    25
100
AcDbPolyline
 90
       18
 70
   128
 43
0.0
 10
-11.3521102974
 20
-6.9747612589
 10
-11.4593347775
 20
-6.9471578057
 10
-11.58292245
 20
-6.9021130326
 10
-11.7031892705
 20
-6.8437263032
 10
-11.8192916537
 20
-6.7724071585
 10
-11.9304152248
 20
-6.688655851
 10
-12.0357805318
 20
-6.593059836
 10
-12.1346485127
 20
-6.486289651
 10
-12.2263256798
 20
-6.3690942119
 10
-12.3101689835
 20
-6.2422955606
 10
-12.3855903233
 20
-6.1067830985
 10
-12.4520606727
 20
-5.9635073482
 10
-12.50911379
 20
-5.8134732862
 10
-12.5563494886
 20
-5.6577332935
 10
-12.5934364439
 20
-5.4973797743
 10
-12.6201145176
 20
-5.3335374934
 10
-12.6361965822
 20
-5.1673556867
 10
-12.6415698335
 20
-5.0
  0
LWPOLYLINE
  5
302
330
23
100
AcDbEntity
  8
0
  6
Continuous
 62
     7
370
    25
100
AcDbPolyline
 90
       36
 70
   128
 43
0.0
 10
-12.0251586577
 20
-3.0248469682
 10
-12.071492767
 20
-3.0354254985
 10
-12.1964170059
 20
-3.0736748664
 10
-12.3184512972
 20
-3.125436021
 10
-12.4367396581
 20
-3.1903458951
 10
-12.5504523806
 20
-3.2679491924
 10
-12.6587918517
 20
-3.3577015817
 10
-12.760998148
 20
-3.4589735144
 10
-12.8563543656
 20
-3.5710546407
 10
-12.9441916492
 20
-3.693158792
 10
-13.0238938833
 20
-3.8244294954
 10
-13.0949020141
 20
-3.9639459813
 10
-13.1567179706
 20
-4.1107296416
 10
-13.2089081582
 20
-4.2637508946
 10
-13.2511065002
 20
-4.4219364061
 10
-13.2830170056
 20
-4.5841766184
 10
-13.3044158452
 20
-4.7493335329
 10
-13.3151529214
 20
-4.9162486925
 10
-13.3151529214
 20
-5.0837513075
 10
-13.3044158452
 20
-5.2506664671
 10
-13.2830170056
 20
-5.4158233816
 10
-13.2511065002
 20
-5.5780635939
 10
-13.2089081582
 20
-5.7362491054
 10
-13.1567179706
 20
-5.8892703584
 10
-13.0949020141
 20
-6.0360540187
 10
-13.0238938833
 20
-6.1755705046
 10
-12.9441916492
 20
-6.306841208
 10
-12.8563543656
 20
-6.4289453593
 10
-12.760998148
 20
-6.5410264856
 10
-12.6587918517
 20
-6.6422984183
 10
-12.5504523806
 20
-6.7320508076
 10
-12.4367396581
 20
-6.8096541049
 10
-12.3184512972
 20
-6.874563979
 10
-12.1964170059
 20
-6.9263251336
 10
-12.071492767
 20
-6.9645745015
 10
-12.0153842586
 20
-6.9771410651
  0
LWPOLYLINE
  5
303
330
23
100
AcDbEntity
  8
0
  6
Continuous
 62
     7
370
    25
100
AcDbPolyline
 90
       15
 70
   128
 43
0.0
 10
-11.6157895049
 20
-6.8951116033
 10
-11.6888128314
 20
-6.8995601538
 10
-11.814020221
 20
-6.8960426056
 10
-11.9385324742
 20
-6.8784874214
 10
-12.0614277458
 20
-6.8470245736
 10
-12.1817961621
 20
-6.801887002
 10
-12.2987465577
 20
-6.7434088895
 10
-12.4114130726
 20
-6.6720231875
 10
-12.5189615633
 20
-6.5882584109
 10
-12.6205957786
 20
-6.4927347246
 10
-12.7155632542
 20
-6.3861593528
 10
-12.8031608841
 20
-6.269321342
 10
-12.8827401263
 20
-6.1430857201
 10
-12.9537118037
 20
-6.0083870915
 10
-12.9577118492
 20
-6.0
  0
SPLINE
  5
305
330
23
100
AcDbEntity
  8
0
  6
Continuous
 62
     7
370
    25
100
AcDbSpline
210
0.0
220
0.0
230
1.0
 70
     8
 71
     3
 72
    29
 73
    25
 74
     0
 42
0.00000001
 43
0.00000001
 40
0.0
 40
0.0
 40
0.0
 40
0.0
 40
0.008788309722384
 40
0.0577302425163175
 40
0.1066721753102507
 40
0.155614108104184
 40
0.2045560408981174
 40
0.2534979736920507
 40
0.3024399064859842
 40
0.3513818392799173
 40
0.4003237720738508
 40
0.4492657048677843
 40
0.4982076376617177
 40
0.5471495704556513
 40
0.5960915032495844
 40
0.6450334360435177
 40
0.6939753688374511
 40
0.7429173016313845
 40
0.7918592344253178
 40
0.8408011672192515
 40
0.8897431000131845
 40
0.9386850328071178
 40
0.9876269656010511
 40
1.0
 40
1.0
 40
1.0
 40
1.0
 10
-12.67409999158615
 20
-6.862859239098384
 30
0.0
 10
-12.68549680771973
 20
-6.857955605358109
 30
0.0
 10
-12.7603622801586
 20
-6.825743726853625
 30
0.0
 10
-12.88960881871249
 20
-6.735185302232743
 30
0.0
 10
-13.05734878138582
 20
-6.591731837105511
 30
0.0
 10
-13.20828436953745
 20
-6.418127432840055
 30
0.0
 10
-13.34084498076643
 20
-6.221039805772857
 30
0.0
 10
-13.45249131578222
 20
-6.002850492173182
 30
0.0
 10
-13.5413857293976
 20
-5.767558225534426
 30
0.0
 10
-13.60598774579257
 20
-5.519117794070187
 30
0.0
 10
-13.64519722302395
 20
-5.261799139415078
 30
0.0
 10
-13.65834187794855
 20
-4.999999954910126
 30
0.0
 10
-13.64519717787525
 20
-4.738201040944423
 30
0.0
 10
-13.60598792638741
 20
-4.480881574671559
 30
0.0
 10
-13.54138505216697
 20
-4.232444119139094
 30
0.0
 10
-13.45249384410995
 20
-3.997140760390992
 30
0.0
 10
-13.34083554468616
 20
-3.778992839296928
 30
0.0
 10
-13.20831958553082
 20
-3.581750734316643
 30
0.0
 10
-13.0572173534926
 20
-3.408722849197924
 30
0.0
 10
-12.89009931429197
 20
-3.263117785396826
 30
0.0
 10
-12.70988064331898
 20
-3.146501163801497
 30
0.0
 10
-12.51943690974141
 20
-3.064323169261745
 30
0.0
 10
-12.37177727058119
 20
-3.019847489360351
 30
0.0
 10
-12.28816516939707
 20
-3.01397055387655
 30
0.0
 10
-12.27129269190124
 20
-3.012784619540603
 30
0.0
  0
SPLINE
  5
306
330
23
100
AcDbEntity
  8
0
  6
Continuous
 62
     7
370
    25
100
AcDbSpline
210
0.0
220
0.0
230
1.0
 70
     8
 71
     3
 72
    22
 73
    18
 74
     0
 42
0.00000001
 43
0.00000001
 40
0.0
 40
0.0
 40
0.0
 40
0.0
 40
0.125
 40
0.125
 40
0.25
 40
0.25
 40
0.375
 40
0.375
 40
0.5
 40
0.5
 40
0.625
 40
0.625
 40
0.75
 40
0.75
 40
0.875
 40
0.875
 40
1.0
 40
1.0
 40
1.0
 40
1.0
 10
12.30410633844053
 20
-5.0
 30
0.0
 10
12.30410633844053
 20
-5.130899693899577
 30
0.0
 10
12.29423035884074
 20
-5.261796151046269
 30
0.0
 10
12.25510500134753
 20
-5.518565137018256
 30
0.0
 10
12.22585659090568
 20
-5.644431316724381
 30
0.0
 10
12.14910944146597
 20
-5.886302412736001
 30
0.0
 10
12.10161260019263
 20
-6.002301348302018
 30
0.0
 10
11.99019300871911
 20
-6.219979583776422
 30
0.0
 10
11.92627301358788
 20
-6.32165350116148
 30
0.0
 10
11.78446277249603
 20
-6.506773623584748
 30
0.0
 10
11.70657603307306
 20
-6.590215251163126
 30
0.0
 10
11.53982483039995
 20
-6.735663198047091
 30
0.0
 10
11.45096449040188
 20
-6.797665920865562
 30
0.0
 10
11.26568048135108
 20
-6.897852209179616
 30
0.0
 10
11.16926139381058
 20
-6.936033297371794
 30
0.0
 10
10.97256493894145
 20
-6.987107824241148
 30
0.0
 10
10.87229243532026
 20
-7.000000000000005
 30
0.0
 10
10.77201745220252
 20
-7.000000000000001
 30
0.0
  0
LWPOLYLINE
  5
307
330
23
100
AcDbEntity
  8
0
  6
Continuous
 62
     7
370
    25
100
AcDbPolyline
 90
       13
 70
   128
 43
0.0
 10
10.7720174522
 20
-3.0
 10
10.9719951807
 20
-3.0171102773
 10
11.1685512348
 20
-3.0681483474
 10
11.3583224859
 20
-3.152240935
 10
11.5380618953
 20
-3.2679491924
 10
11.704694072
 20
-3.4132933194
 10
11.855367893
 20
-3.5857864376
 10
11.9875052877
 20
-3.782477142
 10
12.0988453485
 20
-4.0
 10
12.1874830162
 20
-4.2346331353
 10
12.2519016756
 20
-4.4823619098
 10
12.2909991056
 20
-4.7389476156
 10
12.3041063384
 20
-5.0
  0
LWPOLYLINE
  5
308
330
23
100
AcDbEntity
  8
0
  6
Continuous
 62
     7
370
    25
100
AcDbPolyline
 90
       18
 70
   128
 43
0.0
 10
12.6415698335
 20
-5.0
 10
12.6361965822
 20
-4.8326443133
 10
12.6201145176
 20
-4.6664625066
 10
12.5934364439
 20
-4.5026202257
 10
12.5563494886
 20
-4.3422667065
 10
12.50911379
 20
-4.1865267138
 10
12.4520606727
 20
-4.0364926518
 10
12.3855903233
 20
-3.8932169015
 10
12.3101689835
 20
-3.7577044394
 10
12.2263256798
 20
-3.6309057881
 10
12.1346485127
 20
-3.513710349
 10
12.0357805318
 20
-3.406940164
 10
11.9304152248
 20
-3.311344149
 10
11.8192916537
 20
-3.2275928415
 10
11.7031892705
 20
-3.1562736968
 10
11.58292245
 20
-3.0978869674
 10
11.4593347775
 20
-3.0528421943
 10
11.3479382779
 20
-3.0243729324
  0
LWPOLYLINE
  5
309
330
23
100
AcDbEntity
  8
0
  6
Continuous
 62
     7
370
    25
100
AcDbPolyline
 90
       18
 70
   128
 43
0.0
 10
11.3456832251
 20
-6.9760886459
 10
11.4593347775
 20
-6.9471578057
 10
11.58292245
 20
-6.9021130326
 10
11.7031892705
 20
-6.8437263032
 10
11.8192916537
 20
-6.7724071585
 10
11.9304152248
 20
-6.688655851
 10
12.0357805318
 20
-6.593059836
 10
12.1346485127
 20
-6.486289651
 10
12.2263256798
 20
-6.3690942119
 10
12.3101689835
 20
-6.2422955606
 10
12.3855903233
 20
-6.1067830985
 10
12.4520606727
 20
-5.9635073482
 10
12.50911379
 20
-5.8134732862
 10
12.5563494886
 20
-5.6577332935
 10
12.5934364439
 20
-5.4973797743
 10
12.6201145176
 20
-5.3335374934
 10
12.6361965822
 20
-5.1673556867
 10
12.6415698335
 20
-5.0
  0
LWPOLYLINE
  5
30A
330
23
100
AcDbEntity
  8
0
  6
Continuous
 62
     7
370
    25
100
AcDbPolyline
 90
       36
 70
   128
 43
0.0
 10
12.0176184575
 20
-3.023305915
 10
12.071492767
 20
-3.0354254985
 10
12.1964170059
 20
-3.0736748664
 10
12.3184512972
 20
-3.125436021
 10
12.4367396581
 20
-3.1903458951
 10
12.5504523806
 20
-3.2679491924
 10
12.6587918517
 20
-3.3577015817
 10
12.760998148
 20
-3.4589735144
 10
12.8563543656
 20
-3.5710546407
 10
12.9441916492
 20
-3.693158792
 10
13.0238938833
 20
-3.8244294954
 10
13.0949020141
 20
-3.9639459813
 10
13.1567179706
 20
-4.1107296416
 10
13.2089081582
 20
-4.2637508946
 10
13.2511065002
 20
-4.4219364061
 10
13.2830170056
 20
-4.5841766184
 10
13.3044158452
 20
-4.7493335329
 10
13.3151529214
 20
-4.9162486925
 10
13.3151529214
 20
-5.0837513075
 10
13.3044158452
 20
-5.2506664671
 10
13.2830170056
 20
-5.4158233816
 10
13.2511065002
 20
-5.5780635939
 10
13.2089081582
 20
-5.7362491054
 10
13.1567179706
 20
-5.8892703584
 10
13.0949020141
 20
-6.0360540187
 10
13.0238938833
 20
-6.1755705046
 10
12.9441916492
 20
-6.306841208
 10
12.8563543656
 20
-6.4289453593
 10
12.760998148
 20
-6.5410264856
 10
12.6587918517
 20
-6.6422984183
 10
12.5504523806
 20
-6.7320508076
 10
12.4367396581
 20
-6.8096541049
 10
12.3184512972
 20
-6.874563979
 10
12.1964170059
 20
-6.9263251336
 10
12.071492767
 20
-6.9645745015
 10
12.024433354
 20
-6.9753034525
  0
LWPOLYLINE
  5
30B
330
23
100
AcDbEntity
  8
0
  6
Continuous
 62
     7
370
    25
100
AcDbPolyline
 90
       15
 70
   128
 43
0.0
 10
11.6150471627
 20
-6.8950417058
 10
11.6888128314
 20
-6.8995601538
 10
11.814020221
 20
-6.8960426056
 10
11.9385324742
 20
-6.8784874214
 10
12.0614277458
 20
-6.8470245736
 10
12.1817961621
 20
-6.801887002
 10
12.2987465577
 20
-6.7434088895
 10
12.4114130726
 20
-6.6720231875
 10
12.5189615633
 20
-6.5882584109
 10
12.6205957786
 20
-6.4927347246
 10
12.7155632542
 20
-6.3861593528
 10
12.8031608841
 20
-6.269321342
 10
12.8827401263
 20
-6.1430857201
 10
12.9537118037
 20
-6.0083870915
 10
12.9577118492
 20
-6.0
  0
SPLINE
  5
30D
330
23
100
AcDbEntity
  8
0
  6
Continuous
 62
     7
370
    25
100
AcDbSpline
210
0.0
220
0.0
230
1.0
 70
     8
 71
     3
 72
    29
 73
    25
 74
     0
 42
0.00000001
 43
0.00000001
 40
0.0
 40
0.0
 40
0.0
 40
0.0
 40
0.0472153205346081
 40
0.0944306410692162
 40
0.1416459616038243
 40
0.1888612821384326
 40
0.2360766026730405
 40
0.2832919232076487
 40
0.3305072437422568
 40
0.377722564276865
 40
0.4249378848114734
 40
0.4721532053460814
 40
0.5193685258806895
 40
0.5665838464152977
 40
0.6137991669499056
 40
0.6610144874845137
 40
0.7082298080191217
 40
0.75544512855373
 40
0.8026604490883386
 40
0.8498757696229458
 40
0.8970910901575548
 40
0.9443064106921627
 40
0.991521731226771
 40
1.0
 40
1.0
 40
1.0
 40
1.0
 10
12.12187143254426
 20
-7.000000000000001
 30
0.0
 10
12.1887213120274
 20
-6.996697708420053
 30
0.0
 10
12.32242107099369
 20
-6.990093125260158
 30
0.0
 10
12.51953924952635
 20
-6.936965835445104
 30
0.0
 10
12.70985322145625
 20
-6.853153448428264
 30
0.0
 10
12.89010666195794
 20
-6.736974760977284
 30
0.0
 10
13.05721538469144
 20
-6.59125235307587
 30
0.0
 10
13.2083201130695
 20
-6.418255910214069
 30
0.0
 10
13.34083540333259
 20
-6.221005380306433
 30
0.0
 10
13.45249388198552
 20
-6.002859716664847
 30
0.0
 10
13.54138504201824
 20
-5.767555753034181
 30
0.0
 10
13.60598792910675
 20
-5.519118459579508
 30
0.0
 10
13.6451971771466
 20
-5.26179894987803
 30
0.0
 10
13.65834187814379
 20
-5.000000047548992
 30
0.0
 10
13.64519722297164
 20
-4.738200859926005
 30
0.0
 10
13.60598774580658
 20
-4.48088220610637
 30
0.0
 10
13.54138572939386
 20
-4.232441774418263
 30
0.0
 10
13.45249131578322
 20
-3.997149507839497
 30
0.0
 10
13.34084498076617
 20
-3.778960194223752
 30
0.0
 10
13.20828436953752
 20
-3.581872567160856
 30
0.0
 10
13.0573487813858
 20
-3.408268162894253
 30
0.0
 10
12.88960881871249
 20
-3.264814697767312
 30
0.0
 10
12.76036228015838
 20
-3.174256273146255
 30
0.0
 10
12.68549680771926
 20
-3.142044394641677
 30
0.0
 10
12.67409999158545
 20
-3.137140760901306
 30
0.0
  0
LINE
  5
30F
330
23
100
AcDbEntity
  8
0
  6
Continuous
 62
     7
370
    25
100
AcDbLine
 10
-11.1094809473
 20
-7.0
 30
0.0
 11
-10.7720174522
 21
-7.0
 31
0.0
  0
LINE
  5
310
330
23
100
AcDbEntity
  8
0
  6
Continuous
 62
     7
370
    25
100
AcDbLine
 10
-11.493317681
 20
-3.0625
 30
0.0
 11
-11.687989796
 21
-3.0625
 31
0.0
  0
LINE
  5
311
330
23
100
AcDbEntity
  8
0
  6
Continuous
 62
     7
370
    25
100
AcDbLine
 10
-10.691669001
 20
-5.4375
 30
0.0
 11
-10.6788132488
 21
-5.4375
 31
0.0
  0
LINE
  5
312
330
23
100
AcDbEntity
  8
0
  6
Continuous
 62
     7
370
    25
100
AcDbLine
 10
-10.6788132488
 20
-4.5625
 30
0.0
 11
-10.691669001
 21
-4.5625
 31
0.0
  0
LINE
  5
313
330
23
100
AcDbEntity
  8
0
  6
Continuous
 62
     7
370
    25
100
AcDbLine
 10
-11.5400354705
 20
-6.9752223696
 30
0.0
 11
-11.4460051875
 21
-6.9512301312
 31
0.0
  0
LINE
  5
314
330
23
100
AcDbEntity
  8
0
  6
Continuous
 62
     7
370
    25
100
AcDbLine
 10
-12.1218714325
 20
-7.0
 30
0.0
 11
-11.7844079375
 21
-7.0
 31
0.0
  0
LINE
  5
315
330
23
100
AcDbEntity
  8
0
  6
Continuous
 62
     7
370
    25
100
AcDbLine
 10
-10.625
 20
-3.0
 30
0.0
 11
-10.625
 21
-3.0125789476
 31
0.0
  0
LINE
  5
316
330
23
100
AcDbEntity
  8
0
  6
Continuous
 62
     7
370
    25
100
AcDbLine
 10
-9.875
 20
-3.3776034352
 30
0.0
 11
-9.875
 21
-3.0
 31
0.0
  0
LINE
  5
317
330
23
100
AcDbEntity
  8
0
  6
Continuous
 62
     7
370
    25
100
AcDbLine
 10
10.7720174522
 20
-7.0
 30
0.0
 11
11.1094809473
 21
-7.0
 31
0.0
  0
LINE
  5
318
330
23
100
AcDbEntity
  8
0
  6
Continuous
 62
     7
370
    25
100
AcDbLine
 10
11.687989796
 20
-3.0625
 30
0.0
 11
11.493636566
 21
-3.0625
 31
0.0
  0
LINE
  5
319
330
23
100
AcDbEntity
  8
0
  6
Continuous
 62
     7
370
    25
100
AcDbLine
 10
10.691669001
 20
-4.5625
 30
0.0
 11
10.6788132488
 21
-4.5625
 31
0.0
  0
LINE
  5
31A
330
23
100
AcDbEntity
  8
0
  6
Continuous
 62
     7
370
    25
100
AcDbLine
 10
10.6788132488
 20
-5.4375
 30
0.0
 11
10.691669001
 21
-5.4375
 31
0.0
  0
LINE
  5
31B
330
23
100
AcDbEntity
  8
0
  6
Continuous
 62
     7
370
    25
100
AcDbLine
 10
11.7844079375
 20
-7.0
 30
0.0
 11
12.1218714325
 21
-7.0
 31
0.0
  0
LINE
  5
31C
330
23
100
AcDbEntity
  8
0
  6
Continuous
 62
     7
370
    25
100
AcDbLine
 10
9.875
 20
-3.0
 30
0.0
 11
9.875
 21
-3.3789981545
 31
0.0
  0
LINE
  5
31D
330
23
100
AcDbEntity
  8
0
  6
Continuous
 62
     7
370
    25
100
AcDbLine
 10
10.625
 20
-3.0123604414
 30
0.0
 11
10.625
 21
-3.0
 31
0.0
  0
LINE
  5
31E
330
23
100
AcDbEntity
  8
0
  6
Continuous
 62
     7
370
    25
100
AcDbLine
 10
2.1875
 20
12.5
 30
0.0
 11
2.1875
 21
24.0
 31
0.0
  0
LINE
  5
31F
330
23
100
AcDbEntity
  8
0
  6
Continuous
 62
     7
370
    25
100
AcDbLine
 10
1.9375
 20
12.5
 30
0.0
 11
2.1875
 21
12.5
 31
0.0
  0
LINE
  5
320
330
23
100
AcDbEntity
  8
0
  6
Continuous
 62
     7
370
    25
100
AcDbLine
 10
2.1875
 20
24.0
 30
0.0
 11
1.9375
 21
24.0
 31
0.0
  0
LINE
  5
321
330
23
100
AcDbEntity
  8
0
  6
Continuous
 62
     7
370
    25
100
AcDbLine
 10
2.1875
 20
12.0
 30
0.0
 11
1.9375
 21
12.0
 31
0.0
  0
LINE
  5
322
330
23
100
AcDbEntity
  8
0
  6
Continuous
 62
     7
370
    25
100
AcDbLine
 10
1.9375
 20
0.5
 30
0.0
 11
2.1875
 21
0.5
 31
0.0
  0
LINE
  5
323
330
23
100
AcDbEntity
  8
0
  6
Continuous
 62
     7
370
    25
100
AcDbLine
 10
2.1875
 20
0.5
 30
0.0
 11
2.1875
 21
12.0
 31
0.0
  0
LINE
  5
324
330
23
100
AcDbEntity
  8
0
  6
Continuous
 62
     7
370
    25
100
AcDbLine
 10
-2.1875
 20
12.5
 30
0.0
 11
-1.9375
 21
12.5
 31
0.0
  0
LINE
  5
325
330
23
100
AcDbEntity
  8
0
  6
Continuous
 62
     7
370
    25
100
AcDbLine
 10
-2.1875
 20
24.0
 30
0.0
 11
-2.1875
 21
12.5
 31
0.0
  0
LINE
  5
326
330
23
100
AcDbEntity
  8
0
  6
Continuous
 62
     7
370
    25
100
AcDbLine
 10
-1.9375
 20
24.0
 30
0.0
 11
-2.1875
 21
24.0
 31
0.0
  0
LINE
  5
327
330
23
100
AcDbEntity
  8
0
  6
Continuous
 62
     7
370
    25
100
AcDbLine
 10
-2.1875
 20
0.5
 30
0.0
 11
-1.9375
 21
0.5
 31
0.0
  0
LINE
  5
328
330
23
100
AcDbEntity
  8
0
  6
Continuous
 62
     7
370
    25
100
AcDbLine
 10
-2.1875
 20
12.0
 30
0.0
 11
-2.1875
 21
0.5
 31
0.0
  0
LINE
  5
329
330
23
100
AcDbEntity
  8
0
  6
Continuous
 62
     7
370
    25
100
AcDbLine
 10
-1.9375
 20
12.0
 30
0.0
 11
-2.1875
 21
12.0
 31
0.0
  0
LINE
  5
32A
330
23
100
AcDbEntity
  8
0
  6
Continuous
 62
     7
370
    25
100
AcDbLine
 10
-12.9592327019
 20
-6.0
 30
0.0
 11
-12.4567133609
 21
-6.0
 31
0.0
  0
LINE
  5
32B
330
23
100
AcDbEntity
  8
0
  6
Continuous
 62
     7
370
    25
100
AcDbLine
 10
12.9592327019
 20
-6.0
 30
0.0
 11
12.4560597933
 21
-6.0
 31
0.0
  0
LINE
  5
32C
330
23
100
AcDbEntity
  8
0
  6
Continuous
 62
     7
370
    25
100
AcDbLine
 10
11.0
 20
-3.0
 30
0.0
 11
11.0
 21
0.0
 31
0.0
  0
LINE
  5
32D
330
23
100
AcDbEntity
  8
0
  6
Continuous
 62
     7
370
    25
100
AcDbLine
 10
13.0
 20
-3.0
 30
0.0
 11
-13.0
 21
-3.0
 31
0.0
  0
LINE
  5
32E
330
23
100
AcDbEntity
  8
0
  6
Continuous
 62
     7
370
    25
100
AcDbLine
 10
-11.0
 20
-3.0
 30
0.0
 11
-11.0
 21
0.0
 31
0.0
  0
LINE
  5
32F
330
23
100
AcDbEntity
  8
0
  6
Continuous
 62
     7
370
    25
100
AcDbLine
 10
13.0
 20
0.0
 30
0.0
 11
-13.0
 21
0.0
 31
0.0
  0
LINE
  5
330
330
23
100
AcDbEntity
  8
0
  6
Continuous
 62
     7
370
    25
100
AcDbLine
 10
13.0
 20
-3.0
 30
0.0
 11
13.0
 21
0.0
 31
0.0
  0
LINE
  5
331
330
23
100
AcDbEntity
  8
0
  6
Continuous
 62
     7
370
    25
100
AcDbLine
 10
-13.0
 20
-3.0
 30
0.0
 11
-13.0
 21
0.0
 31
0.0
  0
LINE
  5
332
330
23
100
AcDbEntity
  8
0
  6
Continuous
 62
     7
370
    25
100
AcDbLine
 10
-1.9375
 20
24.441
 30
0.0
 11
1.9375
 21
24.441
 31
0.0
  0
LINE
  5
333
330
23
100
AcDbEntity
  8
0
  6
Continuous
 62
     7
370
    25
100
AcDbLine
 10
1.9375
 20
0.0
 30
0.0
 11
1.9375
 21
24.441
 31
0.0
  0
LINE
  5
334
330
23
100
AcDbEntity
  8
0
  6
Continuous
 62
     7
370
    25
100
AcDbLine
 10
-1.9375
 20
0.0
 30
0.0
 11
-1.9375
 21
24.441
 31
0.0
  0
LINE
  5
335
330
23
100
AcDbEntity
  8
0
  6
Continuous
 62
     7
370
    25
100
AcDbLine
 10
-12.2982147794
 20
-3.015088098
 30
0.0
 11
-12.2712926919
 21
-3.0127846195
 31
0.0
  0
ARC
  5
336
330
23
100
AcDbEntity
  8
0
  6
Continuous
 62
     7
370
    25
100
AcDbCircle
 10
-11.1089034801
 20
-4.1841951634
 30
0.0
 40
1.184195304221986
100
AcDbArc
 50
90.0279400129
 51
101.2429566239
  0
ARC
  5
337
330
23
100
AcDbEntity
  8
0
  6
Continuous
 62
     7
370
    25
100
AcDbCircle
 10
-11.1088543105
 20
-5.8151137109
 30
0.0
 40
1.184886454807845
100
AcDbArc
 50
258.1529980789
 51
269.9696986601
  0
ARC
  5
338
330
23
100
AcDbEntity
  8
0
  6
Continuous
 62
     7
370
    25
100
AcDbCircle
 10
-11.7844107309
 20
-4.180992532
 30
0.0
 40
1.180945438603688
100
AcDbArc
 50
78.3505627139
 51
101.7627919854
  0
ARC
  5
339
330
23
100
AcDbEntity
  8
0
  6
Continuous
 62
     7
370
    25
100
AcDbCircle
 10
-11.7844027532
 20
-5.8189909963
 30
0.0
 40
1.180958948286331
100
AcDbArc
 50
258.7209197659
 51
281.5372216649
  0
ARC
  5
33A
330
23
100
AcDbEntity
  8
0
  6
Continuous
 62
     7
370
    25
100
AcDbCircle
 10
11.1088711666
 20
-4.1846492397
 30
0.0
 40
1.184649396591666
100
AcDbArc
 50
78.3575219539
 51
89.9705078489
  0
ARC
  5
33B
330
23
100
AcDbEntity
  8
0
  6
Continuous
 62
     7
370
    25
100
AcDbCircle
 10
11.1088801875
 20
-5.8154775705
 30
0.0
 40
1.18452258186765
100
AcDbArc
 50
270.0290589669
 51
281.5319492971
  0
ARC
  5
33C
330
23
100
AcDbEntity
  8
0
  6
Continuous
 62
     7
370
    25
100
AcDbCircle
 10
11.7844110619
 20
-4.1806627454
 30
0.0
 40
1.180618703151008
100
AcDbArc
 50
78.6074535429
 51
101.2490420344
  0
ARC
  5
33D
330
23
100
AcDbEntity
  8
0
  6
Continuous
 62
     7
370
    25
100
AcDbCircle
 10
11.78440497
 20
-5.8186774226
 30
0.0
 40
1.181269401176395
100
AcDbArc
 50
258.1473991626
 51
281.7238736761
  0
ARC
  5
33E
330
23
100
AcDbEntity
  8
0
  6
Continuous
 62
     7
370
    25
100
AcDbCircle
 10
-10.7626745441
 20
-4.9999999999
 30
0.0
 40
2.413709806883303
100
AcDbArc
 50
159.1172217895
 51
200.8827783693
  0
ARC
  5
33F
330
23
100
AcDbEntity
  8
0
  6
Continuous
 62
     7
370
    25
100
AcDbCircle
 10
10.7626745441
 20
-4.9999999999
 30
0.0
 40
2.413709806883303
100
AcDbArc
 50
339.1172216307
 51
20.8827782105
  0
VIEWPORT
  5
342
330
23
100
AcDbEntity
  8
0
100
AcDbViewport
 10
0.0
 20
0.0
 30
0.0
 40
8.4
 41
6.4
 68
     1
 69
     1
 12
0.0
 22
8.7202816478
 13
0.0
 23
0.0
 14
0.5
 24
0.5
 15
0.5
 25
0.5
 16
0.0
 26
0.0
 36
1.0
 17
0.0
 27
0.0
 37
0.0
 42
50.0
 43
0.0
 44
0.0
 45
56.6981942338
 50
0.0
 51
0.0
 72
   100
 90
   557152
  1

281
     0
 71
     1
 74
     0
110
0.0
120
0.0
130
0.0
111
1.0
121
0.0
131
0.0
112
0.0
122
1.0
132
0.0
 79
     0
146
0.0
  0
ENDBLK
  5
25
330
23
100
AcDbEntity
  8
0
100
AcDbBlockEnd
  0
ENDSEC
  0
SECTION
  2
ENTITIES
  0
SPLINE
  5
73
330
1F
100
AcDbEntity
  8
0
  6
Continuous
 62
     7
370
    25
100
AcDbSpline
210
0.0
220
0.0
230
1.0
 70
     8
 71
     3
 72
    35
 73
    31
 74
     0
 42
0.00000001
 43
0.00000001
 40
0.0
 40
0.0
 40
0.0
 40
0.0
 40
0.0385378157666619
 40
0.0778968984607858
 40
0.1178577181810835
 40
0.1544176963283805
 40
0.1860865443249849
 40
0.2128693483031366
 40
0.23797157250529
 40
0.2643654178566722
 40
0.3015486926317623
 40
0.341308612172964
 40
0.38461730884593
 40
0.4194866842678284
 40
0.4563980474754429
 40
0.4953554744288481
 40
0.5355525268254742
 40
0.5862022677539522
 40
0.6330703340417967
 40
0.6761698603210479
 40
0.7160472164326274
 40
0.7559899282336787
 40
0.7965506518434142
 40
0.8377689714632657
 40
0.879909671309657
 40
0.9230172334714363
 40
0.9450805316576742
 40
0.9696435546059929
 40
0.9974387905064351
 40
1.0
 40
1.0
 40
1.0
 40
1.0
 10
33.57500897486029
 20
-3.0
 30
0.0
 10
33.52583050976767
 20
-3.002604966976346
 30
0.0
 10
33.4264255532187
 20
-3.007870414537742
 30
0.0
 10
33.28077352827766
 20
-3.048530412035311
 30
0.0
 10
33.14348360329589
 20
-3.10955747077449
 30
0.0
 10
33.02030467328565
 20
-3.18798676066106
 30
0.0
 10
32.91694575617919
 20
-3.272683681942065
 30
0.0
 10
32.8304116055745
 20
-3.358541388188646
 30
0.0
 10
32.75335716161656
 20
-3.448089657898576
 30
0.0
 10
32.67099646676181
 20
-3.559253717885885
 30
0.0
 10
32.58283688506745
 20
-3.70199826237124
 30
0.0
 10
32.49264136501268
 20
-3.884521771914739
 30
0.0
 10
32.41876712889107
 20
-4.07791288889661
 30
0.0
 10
32.36082577502507
 20
-4.277325963996895
 30
0.0
 10
32.31809951982998
 20
-4.476858919913734
 30
0.0
 10
32.28818367898201
 20
-4.692149196294065
 30
0.0
 10
32.27248922714154
 20
-4.937142362214231
 30
0.0
 10
32.27771336599663
 20
-5.198589413245386
 30
0.0
 10
32.30693294870777
 20
-5.461762474610354
 30
0.0
 10
32.35383779930766
 20
-5.697595788117419
 30
0.0
 10
32.41515620151257
 20
-5.911573500726186
 30
0.0
 10
32.4902471555522
 20
-6.109300432585933
 30
0.0
 10
32.58051427194314
 20
-6.294489590257729
 30
0.0
 10
32.6859459808533
 20
-6.465231159068306
 30
0.0
 10
32.80612663460133
 20
-6.618607348045994
 30
0.0
 10
32.91766750006109
 20
-6.728606325490717
 30
0.0
 10
33.01564406526309
 20
-6.806955386091822
 30
0.0
 10
33.10025202938976
 20
-6.862713088771777
 30
0.0
 10
33.16413361428305
 20
-6.900334670306587
 30
0.0
 10
33.2008298635298
 20
-6.914720845967629
 30
0.0
 10
33.20392596983372
 20
-6.915934624761586
 30
0.0
  0
SPLINE
  5
75
330
1F
100
AcDbEntity
  8
0
  6
Continuous
 62
     7
370
    25
100
AcDbSpline
210
0.0
220
0.0
230
1.0
 70
     8
 71
     3
 72
    47
 73
    43
 74
     0
 42
0.00000001
 43
0.00000001
 40
0.0
 40
0.0
 40
0.0
 40
0.0
 40
0.011954542067624
 40
0.0368139745254521
 40
0.0617001898448404
 40
0.0866719259237455
 40
0.1117710350814758
 40
0.1370172676187242
 40
0.1624087525780218
 40
0.1879271437420635
 40
0.2135450219340523
 40
0.2392329274228163
 40
0.2649643185075832
 40
0.2907180568281106
 40
0.3164775829709359
 40
0.3422321049996153
 40
0.3679771953535635
 40
0.3937112474838921
 40
0.4194346147912121
 40
0.4451489640237227
 40
0.4708568149506712
 40
0.4965612224821546
 40
0.5222655577270551
 40
0.5479729029317786
 40
0.573686094003783
 40
0.5994086420310736
 40
0.6251438452750545
 40
0.6508945791711144
 40
0.6766629905885381
 40
0.7024500491951683
 40
0.7282549042067524
 40
0.7540740013438014
 40
0.7798985325347749
 40
0.8057120207822052
 40
0.8314934626779562
 40
0.8572151890468959
 40
0.8828446425570141
 40
0.9083489046940291
 40
0.933702006575932
 40
0.9588934784700207
 40
0.9839350929777729
 40
1.0
 40
1.0
 40
1.0
 40
1.0
 10
34.00606066156454
 20
-6.997973967361064
 30
0.0
 10
34.02287776459599
 20
-6.997744292533054
 30
0.0
 10
34.0746659802457
 20
-6.997037009625873
 30
0.0
 10
34.16096410387477
 20
-6.982486425249721
 30
0.0
 10
34.26405075447304
 20
-6.955143344657273
 30
0.0
 10
34.36522994003468
 20
-6.915026199932965
 30
0.0
 10
34.4639778934024
 20
-6.863187366201022
 30
0.0
 10
34.55972574458531
 20
-6.799638557052037
 30
0.0
 10
34.65188336634714
 20
-6.724767960961302
 30
0.0
 10
34.73984761272339
 20
-6.638986619874783
 30
0.0
 10
34.82302729716402
 20
-6.54283351260705
 30
0.0
 10
34.90086473048358
 20
-6.436937940939176
 30
0.0
 10
34.97285086660361
 20
-6.322008967710681
 30
0.0
 10
35.03853088511058
 20
-6.198817065320852
 30
0.0
 10
35.09750576160732
 20
-6.068179695563511
 30
0.0
 10
35.14943161705099
 20
-5.930947349184112
 30
0.0
 10
35.19401620485635
 20
-5.787994137517727
 30
0.0
 10
35.2310145858228
 20
-5.640213968175686
 30
0.0
 10
35.26022580074667
 20
-5.488521502993243
 30
0.0
 10
35.28149226535727
 20
-5.333848775864836
 30
0.0
 10
35.29469967293771
 20
-5.177141399554206
 30
0.0
 10
35.29977710750274
 20
-5.019354310600061
 30
0.0
 10
35.29669715668951
 20
-4.861448041150725
 30
0.0
 10
35.28547613420318
 20
-4.704384357956144
 30
0.0
 10
35.26617396100184
 20
-4.549119539890298
 30
0.0
 10
35.23889324307315
 20
-4.396598337452786
 30
0.0
 10
35.20377786796733
 20
-4.247748729187572
 30
0.0
 10
35.16101198621029
 20
-4.103479202104412
 30
0.0
 10
35.1108189091171
 20
-3.964675149253861
 30
0.0
 10
35.05346033126687
 20
-3.832196026664708
 30
0.0
 10
34.98923632337829
 20
-3.706873307268957
 30
0.0
 10
34.91848798082403
 20
-3.589511267103084
 30
0.0
 10
34.84160394774251
 20
-3.480888275755087
 30
0.0
 10
34.75902595498016
 20
-3.381749792571849
 30
0.0
 10
34.67125573201066
 20
-3.292798042158078
 30
0.0
 10
34.57885968238382
 20
-3.21468331843381
 30
0.0
 10
34.482475016926
 20
-3.147967088182724
 30
0.0
 10
34.3828029151223
 20
-3.093175491036384
 30
0.0
 10
34.28059678787849
 20
-3.050490306717477
 30
0.0
 10
34.17660981702238
 20
-3.020794905870209
 30
0.0
 10
34.08402040630213
 20
-3.004006078995875
 30
0.0
 10
34.02619702829459
 20
-3.002438905090369
 30
0.0
 10
34.00359897920584
 20
-3.001826435288923
 30
0.0
  0
SPLINE
  5
77
330
1F
100
AcDbEntity
  8
0
  6
Continuous
 62
     7
370
    25
100
AcDbSpline
210
0.0
220
0.0
230
1.0
 70
     8
 71
     3
 72
    11
 73
     7
 74
     0
 42
0.00000001
 43
0.00000001
 40
0.0
 40
0.0
 40
0.0
 40
0.0
 40
0.2043176197010875
 40
0.5367831887428577
 40
0.869606946947779
 40
1.0
 40
1.0
 40
1.0
 40
1.0
 10
34.76666536210378
 20
-3.00160077571667
 30
0.0
 10
34.74516767649848
 20
-3.001817371510102
 30
0.0
 10
34.68868896337192
 20
-3.002386411913158
 30
0.0
 10
34.59784446461868
 20
-3.017904819952431
 30
0.0
 10
34.51538614264438
 20
-3.037972583553647
 30
0.0
 10
34.46881850942452
 20
-3.057112278356181
 30
0.0
 10
34.45570996992122
 20
-3.062499999999998
 30
0.0
  0
SPLINE
  5
78
330
1F
100
AcDbEntity
  8
0
  6
Continuous
 62
     7
370
    25
100
AcDbSpline
210
0.0
220
0.0
230
1.0
 70
     8
 71
     3
 72
    12
 73
     8
 74
     0
 42
0.00000001
 43
0.00000001
 40
0.0
 40
0.0
 40
0.0
 40
0.0
 40
0.2361011874848109
 40
0.4754533881832124
 40
0.7133817461080939
 40
0.9502263196018771
 40
1.0
 40
1.0
 40
1.0
 40
1.0
 10
34.37865652096812
 20
-6.905794185344305
 30
0.0
 10
34.41184064679552
 20
-6.920505324628515
 30
0.0
 10
34.47866582978851
 20
-6.950130169345415
 30
0.0
 10
34.58213884178935
 20
-6.979557186797161
 30
0.0
 10
34.68706031129302
 20
-6.996425889314505
 30
0.0
 10
34.76484129075178
 20
-7.002367798292941
 30
0.0
 10
34.80719112214269
 20
-6.998944434211531
 30
0.0
 10
34.81454552802558
 20
-6.99834993812707
 30
0.0
  0
SPLINE
  5
7C
330
1F
100
AcDbEntity
  8
0
  6
Continuous
 62
     7
370
    25
100
AcDbSpline
210
0.0
220
0.0
230
1.0
 70
     8
 71
     3
 72
    36
 73
    32
 74
     0
 42
0.00000001
 43
0.00000001
 40
0.0
 40
0.0
 40
0.0
 40
0.0
 40
0.0445176008108085
 40
0.0904317433515865
 40
0.1380068366703194
 40
0.1755686480062583
 40
0.2148283545869358
 40
0.2557834506107777
 40
0.2984311805463143
 40
0.3427691518199106
 40
0.3840063257537875
 40
0.4173233629775432
 40
0.4427252005448984
 40
0.4552651528484534
 40
0.4652399754704864
 40
0.479136715042954
 40
0.4981772357017059
 40
0.5223601607611732
 40
0.5503787813943186
 40
0.5890342272852753
 40
0.6225523042285348
 40
0.6510825987806185
 40
0.6775222429668015
 40
0.7112497162778485
 40
0.7471624507770388
 40
0.7906803593686218
 40
0.8283499521275152
 40
0.8703292165862769
 40
0.9162743907480756
 40
0.9620822337419301
 40
1.0
 40
1.0
 40
1.0
 40
1.0
 10
35.18370230541015
 20
-7.000000000000001
 30
0.0
 10
35.23882696234453
 20
-6.99656745098576
 30
0.0
 10
35.35080556715342
 20
-6.98959467199848
 30
0.0
 10
35.51496464069729
 20
-6.937085519157797
 30
0.0
 10
35.66343366513576
 20
-6.861762830729257
 30
0.0
 10
35.79794568980643
 20
-6.764251580642156
 30
0.0
 10
35.91822443789523
 20
-6.651749059687091
 30
0.0
 10
36.03451843684459
 20
-6.513468337952133
 30
0.0
 10
36.14408038819235
 20
-6.348789255792706
 30
0.0
 10
36.24028704181969
 20
-6.164464019222408
 30
0.0
 10
36.31577273666252
 20
-5.978478582525087
 30
0.0
 10
36.36845545105099
 20
-5.812979778530821
 30
0.0
 10
36.39966870391576
 20
-5.690746703152048
 30
0.0
 10
36.41782400284143
 20
-5.60703442920255
 30
0.0
 10
36.43033048236944
 20
-5.542812969462157
 30
0.0
 10
36.44344634662257
 20
-5.466427533199998
 30
0.0
 10
36.45789713328357
 20
-5.363604007064469
 30
0.0
 10
36.4709248007577
 20
-5.233876344767542
 30
0.0
 10
36.47980429644282
 20
-5.066975478157723
 30
0.0
 10
36.47858127354725
 20
-4.882111639470346
 30
0.0
 10
36.46540099756475
 20
-4.697541483960717
 30
0.0
 10
36.44487805821204
 20
-4.537541391194061
 30
0.0
 10
36.41648523128673
 20
-4.38005891418423
 30
0.0
 10
36.37664678121786
 20
-4.213853830407881
 30
0.0
 10
36.31771881148607
 20
-4.02593205310141
 30
0.0
 10
36.24324439688431
 20
-3.842752859487649
 30
0.0
 10
36.15148580483506
 20
-3.665103663670364
 30
0.0
 10
36.04558104952829
 20
-3.500692098153745
 30
0.0
 10
35.91971404283478
 20
-3.348936456109474
 30
0.0
 10
35.78698893763669
 20
-3.223645600908711
 30
0.0
 10
35.69394072757117
 20
-3.164568619403559
 30
0.0
 10
35.6518009293479
 20
-3.137813756752102
 30
0.0
  0
SPLINE
  5
7E
330
1F
100
AcDbEntity
  8
0
  6
Continuous
 62
     7
370
    25
100
AcDbSpline
210
0.0
220
0.0
230
1.0
 70
     8
 71
     3
 72
    35
 73
    31
 74
     0
 42
0.00000001
 43
0.00000001
 40
0.0
 40
0.0
 40
0.0
 40
0.0
 40
0.0385378157672074
 40
0.0778968984606298
 40
0.117857718181322
 40
0.1544176963281879
 40
0.1860865443249237
 40
0.2128693483032867
 40
0.2379715725053472
 40
0.2643654178566837
 40
0.3015486926321148
 40
0.3413086121730955
 40
0.3846173088459617
 40
0.4194866842679914
 40
0.4563980474756348
 40
0.495355474429014
 40
0.5355525268256793
 40
0.5862022677541879
 40
0.6330703340420891
 40
0.6761698603213949
 40
0.7160472164328431
 40
0.7559899282339924
 40
0.7965506518439399
 40
0.8377689714634408
 40
0.8799096713100115
 40
0.9230172334715242
 40
0.9450805316577321
 40
0.96964355460652
 40
0.9974387905067719
 40
1.0
 40
1.0
 40
1.0
 40
1.0
 10
-33.57500897486028
 20
-7.000000000000001
 30
0.0
 10
-33.52583050976703
 20
-6.997395033023602
 30
0.0
 10
-33.42642555321838
 20
-6.992129585462184
 30
0.0
 10
-33.28077352827695
 20
-6.951469587964311
 30
0.0
 10
-33.14348360329616
 20
-6.890442529225576
 30
0.0
 10
-33.02030467328589
 20
-6.812013239338835
 30
0.0
 10
-32.91694575617954
 20
-6.727316318057985
 30
0.0
 10
-32.83041160557454
 20
-6.641458611811479
 30
0.0
 10
-32.75335716161652
 20
-6.551910342101506
 30
0.0
 10
-32.67099646676184
 20
-6.440746282113696
 30
0.0
 10
-32.58283688506694
 20
-6.298001737629012
 30
0.0
 10
-32.49264136501263
 20
-6.115478228084927
 30
0.0
 10
-32.41876712889116
 20
-5.922087111103467
 30
0.0
 10
-32.36082577502508
 20
-5.722674036003195
 30
0.0
 10
-32.31809951983004
 20
-5.523141080086154
 30
0.0
 10
-32.28818367898192
 20
-5.307850803705852
 30
0.0
 10
-32.27248922714155
 20
-5.062857637785669
 30
0.0
 10
-32.27771336599665
 20
-4.801410586754376
 30
0.0
 10
-32.30693294870778
 20
-4.538237525389227
 30
0.0
 10
-32.35383779930773
 20
-4.302404211882306
 30
0.0
 10
-32.41515620151257
 20
-4.088426499273572
 30
0.0
 10
-32.49024715555228
 20
-3.890699567413554
 30
0.0
 10
-32.58051427194366
 20
-3.70551040974252
 30
0.0
 10
-32.68594598085328
 20
-3.534768840931159
 30
0.0
 10
-32.80612663460115
 20
-3.381392651954575
 30
0.0
 10
-32.91766750006055
 20
-3.271393674509491
 30
0.0
 10
-33.01564406526268
 20
-3.193044613908135
 30
0.0
 10
-33.10025202938971
 20
-3.137286911228549
 30
0.0
 10
-33.16413361428274
 20
-3.099665329693214
 30
0.0
 10
-33.20082986352892
 20
-3.085279154032491
 30
0.0
 10
-33.20392596983243
 20
-3.0840653752387
 30
0.0
  0
SPLINE
  5
80
330
1F
100
AcDbEntity
  8
0
  6
Continuous
 62
     7
370
    25
100
AcDbSpline
210
0.0
220
0.0
230
1.0
 70
     8
 71
     3
 72
    47
 73
    43
 74
     0
 42
0.00000001
 43
0.00000001
 40
0.0
 40
0.0
 40
0.0
 40
0.0
 40
0.0151131273643171
 40
0.0397052036450183
 40
0.0643237747451638
 40
0.0890269468532028
 40
0.1138561221785678
 40
0.1388308386130473
 40
0.1639492453207842
 40
0.1891931933928689
 40
0.2145355585379956
 40
0.2399471978560971
 40
0.2654018550948977
 40
0.2908786192312507
 40
0.3163611089435078
 40
0.3418386483594422
 40
0.3673068575356509
 40
0.3927641472012179
 40
0.4182108669560428
 40
0.4436486656228879
 40
0.4690800358716213
 40
0.49450799975763
 40
0.5199358921344959
 40
0.5453667620999064
 40
0.5708034150619523
 40
0.5962493243478525
 40
0.621707752747174
 40
0.6471815447707868
 40
0.6726728241990154
 40
0.6981825502712008
 40
0.7237098813530162
 40
0.7492513013902756
 40
0.7747980970397336
 40
0.8003339685093946
 40
0.8258381382768366
 40
0.8512832347410965
 40
0.8766370507150849
 40
0.9018670217138356
 40
0.9269474581433412
 40
0.9518680028699114
 40
0.9766403018840267
 40
0.9999999999999999
 40
0.9999999999999999
 40
0.9999999999999999
 40
0.9999999999999999
 10
-33.99204591816661
 20
-3.00160077571667
 30
0.0
 10
-34.01353968454389
 20
-3.001836048910996
 30
0.0
 10
-34.07000810107581
 20
-3.00245415857604
 30
0.0
 10
-34.16096739062788
 20
-3.0174255216961
 30
0.0
 10
-34.26404987018101
 20
-3.04488034577692
 30
0.0
 10
-34.36523017862124
 20
-3.084967408264247
 30
0.0
 10
-34.46397782893085
 20
-3.136814361009526
 30
0.0
 10
-34.55972576201088
 20
-3.200360976110539
 30
0.0
 10
-34.65188336164122
 20
-3.275232165111102
 30
0.0
 10
-34.7398476139923
 20
-3.361013346129321
 30
0.0
 10
-34.82302729682238
 20
-3.457166496544272
 30
0.0
 10
-34.90086473057533
 20
-3.563062056601274
 30
0.0
 10
-34.97285086657895
 20
-3.677991032949374
 30
0.0
 10
-35.03853088511715
 20
-3.801182934502107
 30
0.0
 10
-35.09750576160553
 20
-3.931820304483853
 30
0.0
 10
-35.14943161705145
 20
-4.069052650803131
 30
0.0
 10
-35.19401620485622
 20
-4.212005862485597
 30
0.0
 10
-35.23101458582281
 20
-4.359786031823353
 30
0.0
 10
-35.26022580074665
 20
-4.511478497006954
 30
0.0
 10
-35.28149226535727
 20
-4.666151224135061
 30
0.0
 10
-35.29469967293772
 20
-4.82285860044575
 30
0.0
 10
-35.29977710750272
 20
-4.980645689399909
 30
0.0
 10
-35.29669715668953
 20
-5.138551958849245
 30
0.0
 10
-35.28547613420319
 20
-5.29561564204402
 30
0.0
 10
-35.2661739610018
 20
-5.450880460109361
 30
0.0
 10
-35.23889324307321
 20
-5.603401662548785
 30
0.0
 10
-35.20377786796705
 20
-5.752251270806877
 30
0.0
 10
-35.16101198621127
 20
-5.89652079791656
 30
0.0
 10
-35.11081890911339
 20
-6.035324850667965
 30
0.0
 10
-35.0534603312806
 20
-6.167803973627489
 30
0.0
 10
-34.98923632332699
 20
-6.293126691639526
 30
0.0
 10
-34.91848798101557
 20
-6.410488736973319
 30
0.0
 10
-34.84160394702765
 20
-6.519111709031066
 30
0.0
 10
-34.75902595764534
 20
-6.618250264149754
 30
0.0
 10
-34.67125572208737
 20
-6.707201746650631
 30
0.0
 10
-34.57885971926815
 20
-6.78531746655235
 30
0.0
 10
-34.48247488009336
 20
-6.852029999694849
 30
0.0
 10
-34.38280342180429
 20
-6.906835292355759
 30
0.0
 10
-34.28059491412493
 20
-6.949469815373629
 30
0.0
 10
-34.1766167443604
 20
-6.979352524272897
 30
0.0
 10
-34.07345302337091
 20
-6.997371981028189
 30
0.0
 10
-34.00499661909035
 20
-6.998920169331256
 30
0.0
 10
-33.97177296261548
 20
-6.99967154499698
 30
0.0
  0
SPLINE
  5
82
330
1F
100
AcDbEntity
  8
0
  6
Continuous
 62
     7
370
    25
100
AcDbSpline
210
0.0
220
0.0
230
1.0
 70
     8
 71
     3
 72
    12
 73
     8
 74
     0
 42
0.00000001
 43
0.00000001
 40
0.0
 40
0.0
 40
0.0
 40
0.0
 40
0.1324522922314225
 40
0.4078864154277598
 40
0.6836172836926832
 40
0.9602956931153925
 40
1.0
 40
1.0
 40
1.0
 40
1.0
 10
-34.75265061870591
 20
-6.997973967361064
 30
0.0
 10
-34.73583484315216
 20
-6.997739448843545
 30
0.0
 10
-34.68405071546589
 20
-6.997017249809837
 30
0.0
 10
-34.59769614645138
 20
-6.982672622879797
 30
0.0
 10
-34.49484791046564
 20
-6.954459617060444
 30
0.0
 10
-34.42207659374752
 20
-6.928172714080878
 30
0.0
 10
-34.38474026509726
 20
-6.908289429244569
 30
0.0
 10
-34.38005475930232
 20
-6.905794185344305
 30
0.0
  0
SPLINE
  5
83
330
1F
100
AcDbEntity
  8
0
  6
Continuous
 62
     7
370
    25
100
AcDbSpline
210
0.0
220
0.0
230
1.0
 70
     8
 71
     3
 72
    11
 73
     7
 74
     0
 42
0.00000001
 43
0.00000001
 40
0.0
 40
0.0
 40
0.0
 40
0.0
 40
0.0822215234325538
 40
0.4309529028207691
 40
0.7776097717053377
 40
1.0
 40
1.0
 40
1.0
 40
1.0
 10
-34.45481499026057
 20
-3.062499999999998
 30
0.0
 10
-34.46277174923814
 20
-3.059097428467405
 30
0.0
 10
-34.50447601638469
 20
-3.041263313775651
 30
0.0
 10
-34.58223926351807
 20
-3.021431053170339
 30
0.0
 10
-34.67467043522007
 20
-3.003911724648425
 30
0.0
 10
-34.73250850878215
 20
-3.002412391955097
 30
0.0
 10
-34.75511230106464
 20
-3.001826435288923
 30
0.0
  0
SPLINE
  5
87
330
1F
100
AcDbEntity
  8
0
  6
Continuous
 62
     7
370
    25
100
AcDbSpline
210
0.0
220
0.0
230
1.0
 70
     8
 71
     3
 72
    36
 73
    32
 74
     0
 42
0.00000001
 43
0.00000001
 40
0.0
 40
0.0
 40
0.0
 40
0.0
 40
0.0445176008103935
 40
0.0904317433519084
 40
0.1380068366703879
 40
0.1755686480059321
 40
0.2148283545868966
 40
0.2557834506107157
 40
0.2984311805462718
 40
0.3427691518198204
 40
0.3840063257536472
 40
0.417323362977424
 40
0.4427252005448402
 40
0.4552651528483403
 40
0.4652399754703226
 40
0.4791367150427566
 40
0.498177235701661
 40
0.5223601607612328
 40
0.5503787813942697
 40
0.5890342272852649
 40
0.6225523042285854
 40
0.6510825987804203
 40
0.6775222429666795
 40
0.7112497162777468
 40
0.7471624507769047
 40
0.7906803593685391
 40
0.8283499521274603
 40
0.8703292165861656
 40
0.9162743907479907
 40
0.9620822337415276
 40
1.0
 40
1.0
 40
1.0
 40
1.0
 10
-35.18370230541016
 20
-3.0
 30
0.0
 10
-35.23882696234396
 20
-3.00343254901423
 30
0.0
 10
-35.35080556715314
 20
-3.010405328001575
 30
0.0
 10
-35.51496464069758
 20
-3.062914480842004
 30
0.0
 10
-35.66343366513583
 20
-3.138237169270744
 30
0.0
 10
-35.79794568980603
 20
-3.235748419357907
 30
0.0
 10
-35.91822443789498
 20
-3.348250940312433
 30
0.0
 10
-36.03451843684407
 20
-3.486531662047783
 30
0.0
 10
-36.14408038819275
 20
-3.651210744207095
 30
0.0
 10
-36.24028704181944
 20
-3.835535980777373
 30
0.0
 10
-36.31577273666245
 20
-4.021521417474459
 30
0.0
 10
-36.36845545105085
 20
-4.187020221468835
 30
0.0
 10
-36.39966870391574
 20
-4.309253296847626
 30
0.0
 10
-36.41782400284131
 20
-4.392965570797077
 30
0.0
 10
-36.43033048236931
 20
-4.457187030537225
 30
0.0
 10
-36.44344634662239
 20
-4.533572466799535
 30
0.0
 10
-36.45789713328362
 20
-4.636395992935415
 30
0.0
 10
-36.47092480075791
 20
-4.7661236552326
 30
0.0
 10
-36.47980429644286
 20
-4.933024521842526
 30
0.0
 10
-36.47858127354717
 20
-5.117888360529903
 30
0.0
 10
-36.46540099756457
 20
-5.302458516039237
 30
0.0
 10
-36.44487805821218
 20
-5.462458608805804
 30
0.0
 10
-36.41648523128681
 20
-5.619941085815325
 30
0.0
 10
-36.376646781218
 20
-5.78614616959184
 30
0.0
 10
-36.31771881148601
 20
-5.97406794689832
 30
0.0
 10
-36.24324439688448
 20
-6.157247140512316
 30
0.0
 10
-36.15148580483461
 20
-6.334896336329554
 30
0.0
 10
-36.0455810495288
 20
-6.49930790184626
 30
0.0
 10
-35.91971404283495
 20
-6.651063543890047
 30
0.0
 10
-35.78698893763705
 20
-6.776354399091375
 30
0.0
 10
-35.6939407275713
 20
-6.83543138059633
 30
0.0
 10
-35.65180092934754
 20
-6.862186243247951
 30
0.0
  0
SPLINE
  5
DE
330
1F
100
AcDbEntity
  8
0
  6
Continuous
 62
     7
370
    25
100
AcDbSpline
210
0.0
220
0.0
230
1.0
 70
    11
 71
     3
 72
    70
 73
    66
 74
     0
 42
0.00000001
 43
0.00000001
 40
0.0
 40
0.0
 40
0.0
 40
0.0
 40
0.03125
 40
0.03125
 40
0.0625
 40
0.0625
 40
0.09375
 40
0.09375
 40
0.125
 40
0.125
 40
0.15625
 40
0.15625
 40
0.1875
 40
0.1875
 40
0.21875
 40
0.21875
 40
0.25
 40
0.25
 40
0.28125
 40
0.28125
 40
0.3125
 40
0.3125
 40
0.34375
 40
0.34375
 40
0.375
 40
0.375
 40
0.40625
 40
0.40625
 40
0.4375
 40
0.4375
 40
0.46875
 40
0.46875
 40
0.5
 40
0.5
 40
0.53125
 40
0.53125
 40
0.5625
 40
0.5625
 40
0.59375
 40
0.59375
 40
0.625
 40
0.625
 40
0.65625
 40
0.65625
 40
0.6875
 40
0.6875
 40
0.71875
 40
0.71875
 40
0.75
 40
0.75
 40
0.78125
 40
0.78125
 40
0.8125
 40
0.8125
 40
0.84375
 40
0.84375
 40
0.875
 40
0.875
 40
0.90625
 40
0.90625
 40
0.9375
 40
0.9375
 40
0.96875
 40
0.96875
 40
1.0
 40
1.0
 40
1.0
 40
1.0
 10
32.51507200494062
 20
-5.0
 30
0.0
 10
32.51507200494061
 20
-4.901825229586119
 30
0.0
 10
32.52128720307263
 20
-4.803652886704186
 30
0.0
 10
32.5459097578498
 20
-4.611076147247429
 30
0.0
 10
32.56431650566489
 20
-4.516676512446222
 30
0.0
 10
32.6126153842522
 20
-4.335273190458506
 30
0.0
 10
32.64250632075413
 20
-4.24827398876383
 30
0.0
 10
32.71262542432987
 20
-4.085015312177362
 30
0.0
 10
32.75285185759373
 20
-4.008759874120535
 30
0.0
 10
32.84209654833096
 20
-3.869919782319822
 30
0.0
 10
32.891112599086
 20
-3.807338561620945
 30
0.0
 10
32.99605325356784
 20
-3.698252601471417
 30
0.0
 10
33.05197526247057
 20
-3.65175055934625
 30
0.0
 10
33.16857907020049
 20
-3.576610843119889
 30
0.0
 10
33.22925798580901
 20
-3.547975026969054
 30
0.0
 10
33.35304392784666
 20
-3.509669131821253
 30
0.0
 10
33.41614789346623
 20
-3.499999999999999
 30
0.0
 10
33.54235894547459
 20
-3.499999999999999
 30
0.0
 10
33.60546291109416
 20
-3.509669131821253
 30
0.0
 10
33.72924885313181
 20
-3.547975026969052
 30
0.0
 10
33.78992776874033
 20
-3.576610843119891
 30
0.0
 10
33.90653157647026
 20
-3.651750559346248
 30
0.0
 10
33.96245358537167
 20
-3.698252601471196
 30
0.0
 10
34.06739423985614
 20
-3.807338561621166
 30
0.0
 10
34.11641029060848
 20
-3.86991978231973
 30
0.0
 10
34.20565498134845
 20
-4.008759874120627
 30
0.0
 10
34.24588141461125
 20
-4.08501531217737
 30
0.0
 10
34.31600051818639
 20
-4.248273988763818
 30
0.0
 10
34.34589145469052
 20
-4.335273190458401
 30
0.0
 10
34.39419033327402
 20
-4.516676512446327
 30
0.0
 10
34.41259708109109
 20
-4.611076147247459
 30
0.0
 10
34.4372196358681
 20
-4.803652886704153
 30
0.0
 10
34.44343483400022
 20
-4.901825229586829
 30
0.0
 10
34.44343483400021
 20
-5.098174770413173
 30
0.0
 10
34.4372196358681
 20
-5.196347113295845
 30
0.0
 10
34.4125970810911
 20
-5.388923852752539
 30
0.0
 10
34.39419033327577
 20
-5.483323487554351
 30
0.0
 10
34.34589145468876
 20
-5.664726809540915
 30
0.0
 10
34.3160005181864
 20
-5.751726011236861
 30
0.0
 10
34.24588141461123
 20
-5.914984687821947
 30
0.0
 10
34.20565498134845
 20
-5.991240125878694
 30
0.0
 10
34.11641029060847
 20
-6.130080217680952
 30
0.0
 10
34.06739423985525
 20
-6.192661438377912
 30
0.0
 10
33.96245358537252
 20
-6.301747398529722
 30
0.0
 10
33.90653157646901
 20
-6.348249440653434
 30
0.0
 10
33.7899277687416
 20
-6.423389156880429
 30
0.0
 10
33.72924885313234
 20
-6.452024973032146
 30
0.0
 10
33.60546291109365
 20
-6.490330868177545
 30
0.0
 10
33.54235894547514
 20
-6.499999999999999
 30
0.0
 10
33.41614789346569
 20
-6.500000000000001
 30
0.0
 10
33.35304392784541
 20
-6.490330868178909
 30
0.0
 10
33.22925798581024
 20
-6.452024973030782
 30
0.0
 10
33.16857907019922
 20
-6.423389156880431
 30
0.0
 10
33.05197526247181
 20
-6.348249440653436
 30
0.0
 10
32.99605325356829
 20
-6.301747398528362
 30
0.0
 10
32.89111259908555
 20
-6.192661438379272
 30
0.0
 10
32.84209654833136
 20
-6.130080217680768
 30
0.0
 10
32.75285185759336
 20
-5.991240125878884
 30
0.0
 10
32.71262542433018
 20
-5.914984687823329
 30
0.0
 10
32.64250632075382
 20
-5.751726011235483
 30
0.0
 10
32.61261538425072
 20
-5.664726809542453
 30
0.0
 10
32.56431650566638
 20
-5.483323487552822
 30
0.0
 10
32.54590975784994
 20
-5.38892385275281
 30
0.0
 10
32.52128720307253
 20
-5.19634711329558
 30
0.0
 10
32.51507200494062
 20
-5.098174770413881
 30
0.0
 10
32.51507200494062
 20
-5.0
 30
0.0
  0
SPLINE
  5
DF
330
1F
100
AcDbEntity
  8
0
  6
Continuous
 62
     7
370
    25
100
AcDbSpline
210
0.0
220
0.0
230
1.0
 70
     8
 71
     3
 72
    10
 73
     6
 74
     0
 42
0.00000001
 43
0.00000001
 40
0.0
 40
0.0
 40
0.0
 40
0.0
 40
0.0810028329620615
 40
0.5405014164810309
 40
1.0
 40
1.0
 40
1.0
 40
1.0
 10
33.21420648857598
 20
-6.917027367874266
 30
0.0
 10
33.22353902151493
 20
-6.922089858932059
 30
0.0
 10
33.28581150123456
 20
-6.955869956338529
 30
0.0
 10
33.40708153398762
 20
-6.988449941523205
 30
0.0
 10
33.51903316123606
 20
-6.996149980507737
 30
0.0
 10
33.57500897486028
 20
-7.000000000000001
 30
0.0
  0
LWPOLYLINE
  5
E1
330
1F
100
AcDbEntity
  8
0
  6
Continuous
 62
     7
370
    25
100
AcDbPolyline
 90
        3
 70
   128
 43
0.0
 10
34.0041766446
 20
-6.999559041
 10
34.0041053635
 20
-6.9995613669
 10
33.9771823075
 20
-7.0
  0
LWPOLYLINE
  5
E2
330
1F
100
AcDbEntity
  8
0
  6
Continuous
 62
     7
370
    25
100
AcDbPolyline
 90
       20
 70
   128
 43
0.0
 10
33.4792534195
 20
-4.5625
 10
33.4918702882
 20
-4.5629405334
 10
33.5418306629
 20
-4.5734690384
 10
33.5897797535
 20
-4.5977065995
 10
33.6341764368
 20
-4.6348742015
 10
33.6735937668
 20
-4.6837772471
 10
33.7067648382
 20
-4.7428439521
 10
33.7326235054
 20
-4.8101758641
 10
33.7503386496
 20
-4.8836088801
 10
33.7593408914
 20
-4.9607828024
 10
33.7593408914
 20
-5.0392171976
 10
33.7503386496
 20
-5.1163911199
 10
33.7326235054
 20
-5.1898241359
 10
33.7067648382
 20
-5.2571560479
 10
33.6735937668
 20
-5.3162227529
 10
33.6341764368
 20
-5.3651257985
 10
33.5897797535
 20
-5.4022934005
 10
33.5418306629
 20
-5.4265309616
 10
33.4918702882
 20
-5.4370594666
 10
33.4792534195
 20
-5.4375
  0
LWPOLYLINE
  5
E3
330
1F
100
AcDbEntity
  8
0
  6
Continuous
 62
     7
370
    25
100
AcDbPolyline
 90
       26
 70
   128
 43
0.0
 10
34.6666223063
 20
-3.0625
 10
34.7648524561
 20
-3.0685361489
 10
34.8696013541
 20
-3.0884065135
 10
34.9728929781
 20
-3.1220010306
 10
35.0739857531
 20
-3.1690785109
 10
35.1721538906
 20
-3.2293009649
 10
35.2666925991
 20
-3.3022360296
 10
35.3569231447
 20
-3.3873600728
 10
35.4421977233
 20
-3.4840619523
 10
35.5219041121
 20
-3.5916474037
 10
35.5954700646
 20
-3.7093440247
 10
35.6623674192
 20
-3.8363068207
 10
35.7221158908
 20
-3.971624271
 10
35.7742865196
 20
-4.1143248735
 10
35.8185047501
 20
-4.2633841189
 10
35.8544531207
 20
-4.417731847
 10
35.8818735424
 20
-4.5762599288
 10
35.9005691523
 20
-4.7378302229
 10
35.9104057265
 20
-4.9012827468
 10
35.911312644
 20
-5.0654440044
 10
35.9032833938
 20
-5.2291354113
 10
35.8863756211
 20
-5.3911817564
 10
35.8607107143
 20
-5.5504196392
 10
35.8264729327
 20
-5.7057058225
 10
35.7839080841
 20
-5.8559254399
 10
35.7333217598
 20
-6.0
  0
LWPOLYLINE
  5
E5
330
1F
100
AcDbEntity
  8
0
  6
Continuous
 62
     7
370
    25
100
AcDbPolyline
 90
       22
 70
   128
 43
0.0
 10
34.5825414038
 20
-3.2190664719
 10
34.5976205582
 20
-3.2293009649
 10
34.6921592668
 20
-3.3022360296
 10
34.7823898123
 20
-3.3873600728
 10
34.867664391
 20
-3.4840619523
 10
34.9473707798
 20
-3.5916474037
 10
35.0209367323
 20
-3.7093440247
 10
35.0878340868
 20
-3.8363068207
 10
35.1475825585
 20
-3.971624271
 10
35.1997531873
 20
-4.1143248735
 10
35.2439714178
 20
-4.2633841189
 10
35.2799197883
 20
-4.417731847
 10
35.3073402101
 20
-4.5762599288
 10
35.3260358199
 20
-4.7378302229
 10
35.3358723942
 20
-4.9012827468
 10
35.3367793117
 20
-5.0654440044
 10
35.3287500614
 20
-5.2291354113
 10
35.3118422888
 20
-5.3911817564
 10
35.286177382
 20
-5.5504196392
 10
35.2519396003
 20
-5.7057058225
 10
35.2093747517
 20
-5.8559254399
 10
35.1587884275
 20
-6.0
  0
SPLINE
  5
E9
330
1F
100
AcDbEntity
  8
0
  6
Continuous
 62
     7
370
    25
100
AcDbSpline
210
0.0
220
0.0
230
1.0
 70
     8
 71
     3
 72
    22
 73
    18
 74
     0
 42
0.00000001
 43
0.00000001
 40
0.0
 40
0.0
 40
0.0
 40
0.0
 40
0.125
 40
0.125
 40
0.25
 40
0.25
 40
0.375
 40
0.375
 40
0.5
 40
0.5
 40
0.625
 40
0.625
 40
0.75
 40
0.75
 40
0.875
 40
0.875
 40
1.0
 40
1.0
 40
1.0
 40
1.0
 10
35.18370230541012
 20
-7.000000000000001
 30
0.0
 10
35.2678430067492
 20
-7.000000000000007
 30
0.0
 10
35.3519816275813
 20
-6.987107824236511
 30
0.0
 10
35.51702955028582
 20
-6.936033297376443
 30
0.0
 10
35.59793477110676
 20
-6.897852209171729
 30
0.0
 10
35.75340651473986
 20
-6.797665920873462
 30
0.0
 10
35.82796919328117
 20
-6.735663198036299
 30
0.0
 10
35.96789006592174
 20
-6.590215251173949
 30
0.0
 10
36.03324480026533
 20
-6.506773623569524
 30
0.0
 10
36.15223772124308
 20
-6.32165350117673
 30
0.0
 10
36.20587296560019
 20
-6.219979583758174
 30
0.0
 10
36.29936510369587
 20
-6.002301348320298
 30
0.0
 10
36.33921968570358
 20
-5.886302412715991
 30
0.0
 10
36.40361819048169
 20
-5.64443131674441
 30
0.0
 10
36.42816052090414
 20
-5.518565136996005
 30
0.0
 10
36.46099059394068
 20
-5.261796151068535
 30
0.0
 10
36.46927752478322
 20
-5.130899693879501
 30
0.0
 10
36.46927752478322
 20
-5.0
 30
0.0
  0
SPLINE
  5
EA
330
1F
100
AcDbEntity
  8
0
  6
Continuous
 62
     7
370
    25
100
AcDbSpline
210
0.0
220
0.0
230
1.0
 70
     8
 71
     3
 72
    10
 73
     6
 74
     0
 42
0.00000001
 43
0.00000001
 40
0.0
 40
0.0
 40
0.0
 40
0.0
 40
0.3583911235536946
 40
0.7167822471073895
 40
1.0
 40
1.0
 40
1.0
 40
1.0
 10
35.18370230541015
 20
-3.0
 30
0.0
 10
35.23975082235614
 20
-3.003490947372243
 30
0.0
 10
35.35184785624809
 20
-3.010472842116728
 30
0.0
 10
35.50631566537134
 20
-3.05725362585182
 30
0.0
 10
35.60063573278771
 20
-3.110915152011071
 30
0.0
 10
35.64227031504956
 20
-3.134602319401566
 30
0.0
  0
LWPOLYLINE
  5
EB
330
1F
100
AcDbEntity
  8
0
  6
Continuous
 62
     7
370
    25
100
AcDbPolyline
 90
       36
 70
   128
 43
0.0
 10
33.1827129514
 20
-5.0
 10
33.1872322657
 20
-4.9218813585
 10
33.2006449542
 20
-4.8462735145
 10
33.2225199221
 20
-4.7756065661
 10
33.2521540898
 20
-4.7121518074
 10
33.2885949909
 20
-4.6579487264
 10
33.3306713847
 20
-4.6147394548
 10
33.3770309015
 20
-4.5839127741
 10
33.4261835081
 20
-4.5664594792
 10
33.4765493993
 20
-4.5629405334
 10
33.526509774
 20
-4.5734690384
 10
33.5744588646
 20
-4.5977065995
 10
33.6188555479
 20
-4.6348742015
 10
33.658272878
 20
-4.6837772471
 10
33.6914439494
 20
-4.7428439521
 10
33.7173026165
 20
-4.8101758641
 10
33.7350177607
 20
-4.8836088801
 10
33.7440200025
 20
-4.9607828024
 10
33.7440200025
 20
-5.0392171976
 10
33.7350177607
 20
-5.1163911199
 10
33.7173026165
 20
-5.1898241359
 10
33.6914439494
 20
-5.2571560479
 10
33.658272878
 20
-5.3162227529
 10
33.6188555479
 20
-5.3651257985
 10
33.5744588646
 20
-5.4022934005
 10
33.526509774
 20
-5.4265309616
 10
33.4765493993
 20
-5.4370594666
 10
33.4261835081
 20
-5.4335405208
 10
33.3770309015
 20
-5.4160872259
 10
33.3306713847
 20
-5.3852605452
 10
33.2885949909
 20
-5.3420512736
 10
33.2521540898
 20
-5.2878481926
 10
33.2225199221
 20
-5.2243934339
 10
33.2006449542
 20
-5.1537264855
 10
33.1872322657
 20
-5.0781186415
 10
33.1827129514
 20
-5.0
  0
SPLINE
  5
EC
330
1F
100
AcDbEntity
  8
0
  6
Continuous
 62
     7
370
    25
100
AcDbSpline
210
0.0
220
0.0
230
1.0
 70
    11
 71
     3
 72
    71
 73
    67
 74
     0
 42
0.00000001
 43
0.00000001
 40
0.0
 40
0.0
 40
0.0
 40
0.0
 40
0.0156244154855505
 40
0.0312499943588855
 40
0.046873831057168
 40
0.062499994358811
 40
0.0781238310589339
 40
0.09374999435874
 40
0.1093738310605066
 40
0.1249999943586636
 40
0.1406238310610377
 40
0.1562499943585824
 40
0.171873831061427
 40
0.1874999943585046
 40
0.2031238310616581
 40
0.2187499943584221
 40
0.234373831060826
 40
0.2499999943583339
 40
0.2656238310598464
 40
0.2812499943582497
 40
0.2968738310607165
 40
0.3124999943581797
 40
0.3281238310601877
 40
0.3437499943580817
 40
0.359373831060503
 40
0.3749999943580202
 40
0.390623831063824
 40
0.4062499943579513
 40
0.4218738310625336
 40
0.4374999943578445
 40
0.4531238310599011
 40
0.4687499943577632
 40
0.4843738310601848
 40
0.4999999943576848
 40
0.5156238310601905
 40
0.5312499943576006
 40
0.5468738310608618
 40
0.5624999943575284
 40
0.5781238310647285
 40
0.5937499943574753
 40
0.6093738310636689
 40
0.6249999943573559
 40
0.6406238310601482
 40
0.6562499943572785
 40
0.6718738310599268
 40
0.6874999943571909
 40
0.7031238310597391
 40
0.718749994357114
 40
0.7343738310590145
 40
0.7499999943570215
 40
0.7656238310595174
 40
0.7812499943569562
 40
0.7968738310602653
 40
0.8124999943568657
 40
0.8281238310589558
 40
0.8437499943567812
 40
0.8593738310602514
 40
0.8749999943567153
 40
0.8906238310606371
 40
0.906249994356622
 40
0.9218738310593767
 40
0.9374999943565406
 40
0.9531238310590773
 40
0.9687499943564564
 40
0.9843744155720655
 40
1.0
 40
1.0
 40
1.0
 40
1.0
 10
-32.51507200494062
 20
-5.0
 30
0.0
 10
-32.51507218977625
 20
-4.950913338295421
 30
0.0
 10
-32.5181503329436
 20
-4.852736439023192
 30
0.0
 10
-32.53208832946197
 20
-4.706902783450157
 30
0.0
 10
-32.55508391481875
 20
-4.563866387239316
 30
0.0
 10
-32.58704233905419
 20
-4.425065383875245
 30
0.0
 10
-32.62753340876896
 20
-4.291754951020446
 30
0.0
 10
-32.67628367893716
 20
-4.165320589393133
 30
0.0
 10
-32.73271405935012
 20
-4.046860981934848
 30
0.0
 10
-32.79638268645756
 20
-3.937652054673205
 30
0.0
 10
-32.86658380133613
 20
-3.838595611299347
 30
0.0
 10
-32.94272403262954
 20
-3.750808955588367
 30
0.0
 10
-33.02399809333412
 20
-3.674962360034991
 30
0.0
 10
-33.1096839022013
 20
-3.611971567777499
 30
0.0
 10
-33.19890759221828
 20
-3.562249562189218
 30
0.0
 10
-33.29084612105915
 20
-3.526475334202359
 30
0.0
 10
-33.38459062402264
 20
-3.504788707369829
 30
0.0
 10
-33.4792487267322
 20
-3.497605827171321
 30
0.0
 10
-33.57391149396817
 20
-3.504787983999521
 30
0.0
 10
-33.66765151274788
 20
-3.526472485649172
 30
0.0
 10
-33.75959470719962
 20
-3.562247419878917
 30
0.0
 10
-33.84881426569467
 20
-3.611965980139741
 30
0.0
 10
-33.93450456195688
 20
-3.674958881116018
 30
0.0
 10
-34.01577500257191
 20
-3.750800843595109
 30
0.0
 10
-34.09191937062059
 20
-3.83859092945341
 30
0.0
 10
-34.16211751590068
 20
-3.937641730080909
 30
0.0
 10
-34.22578977037002
 20
-4.046855277059306
 30
0.0
 10
-34.28221794495511
 20
-4.165308449100307
 30
0.0
 10
-34.33097119680741
 20
-4.291748441830062
 30
0.0
 10
-34.37146089759653
 20
-4.425051896305159
 30
0.0
 10
-34.40342158671591
 20
-4.563859316779586
 30
0.0
 10
-34.42641681721206
 20
-4.706890276703886
 30
0.0
 10
-34.44035671223747
 20
-4.852730833604583
 30
0.0
 10
-34.44497377862976
 20
-4.999992699398541
 30
0.0
 10
-34.4403571772098
 20
-5.147261821904018
 30
0.0
 10
-34.42641864822654
 20
-5.293095402652292
 30
0.0
 10
-34.40342296376671
 20
-5.436133620975618
 30
0.0
 10
-34.37146448925476
 20
-5.574934613962667
 30
0.0
 10
-34.33097343301303
 20
-5.708245049589117
 30
0.0
 10
-34.28222315922845
 20
-5.834679410479653
 30
0.0
 10
-34.22579277978591
 20
-5.953139018113928
 30
0.0
 10
-34.16212415242207
 20
-6.062347945326992
 30
0.0
 10
-34.09192303761871
 20
-6.16140438870462
 30
0.0
 10
-34.01578280630708
 20
-6.24919104441143
 30
0.0
 10
-33.93450874560761
 20
-6.325037639963565
 30
0.0
 10
-33.84882293674077
 20
-6.388028432221586
 30
0.0
 10
-33.75959924672395
 20
-6.437750437811028
 30
0.0
 10
-33.66766071788385
 20
-6.473524665796907
 30
0.0
 10
-33.57391621491914
 20
-6.495211292629486
 30
0.0
 10
-33.47925811220767
 20
-6.502394172828314
 30
0.0
 10
-33.38459534497051
 20
-6.495212016003065
 30
0.0
 10
-33.29085532618932
 20
-6.473527514349705
 30
0.0
 10
-33.19891213174002
 20
-6.437752580117443
 30
0.0
 10
-33.10969257324468
 20
-6.388034019859257
 30
0.0
 10
-33.02400227698217
 20
-6.3250411188857
 30
0.0
 10
-32.94273183637098
 20
-6.249199156401985
 30
0.0
 10
-32.8665874683042
 20
-6.161409070547019
 30
0.0
 10
-32.79638932309577
 20
-6.062358269910052
 30
0.0
 10
-32.73271706837068
 20
-5.953144722985058
 30
0.0
 10
-32.67628889475295
 20
-5.834691550751632
 30
0.0
 10
-32.6275356392855
 20
-5.70825155876577
 30
0.0
 10
-32.58704595197371
 20
-5.574948101500492
 30
0.0
 10
-32.55508521256459
 20
-5.436140691421317
 30
0.0
 10
-32.53208988301168
 20
-5.293107909093944
 30
0.0
 10
-32.51814945526378
 20
-5.14726742708003
 30
0.0
 10
-32.51507182009116
 20
-5.04909033412864
 30
0.0
 10
-32.51507200494062
 20
-5.0
 30
0.0
  0
SPLINE
  5
ED
330
1F
100
AcDbEntity
  8
0
  6
Continuous
 62
     7
370
    25
100
AcDbSpline
210
0.0
220
0.0
230
1.0
 70
     8
 71
     3
 72
    10
 73
     6
 74
     0
 42
0.00000001
 43
0.00000001
 40
0.0
 40
0.0
 40
0.0
 40
0.0
 40
0.4594985835173852
 40
0.9189971670347706
 40
1.0
 40
1.0
 40
1.0
 40
1.0
 10
-33.57500897486028
 20
-3.0
 30
0.0
 10
-33.51903316123606
 20
-3.003850019492259
 30
0.0
 10
-33.40708153398761
 20
-3.011550058476776
 30
0.0
 10
-33.28581150123416
 20
-3.044130043661641
 30
0.0
 10
-33.22353902151413
 20
-3.077910141068353
 30
0.0
 10
-33.21420648857478
 20
-3.082972632126363
 30
0.0
  0
LWPOLYLINE
  5
EF
330
1F
100
AcDbEntity
  8
0
  6
Continuous
 62
     7
370
    25
100
AcDbPolyline
 90
       20
 70
   128
 43
0.0
 10
-33.4792534195
 20
-4.5625
 10
-33.4918702882
 20
-4.5629405334
 10
-33.5418306629
 20
-4.5734690384
 10
-33.5897797535
 20
-4.5977065995
 10
-33.6341764368
 20
-4.6348742015
 10
-33.6735937668
 20
-4.6837772471
 10
-33.7067648382
 20
-4.7428439521
 10
-33.7326235054
 20
-4.8101758641
 10
-33.7503386496
 20
-4.8836088801
 10
-33.7593408914
 20
-4.9607828024
 10
-33.7593408914
 20
-5.0392171976
 10
-33.7503386496
 20
-5.1163911199
 10
-33.7326235054
 20
-5.1898241359
 10
-33.7067648382
 20
-5.2571560479
 10
-33.6735937668
 20
-5.3162227529
 10
-33.6341764368
 20
-5.3651257985
 10
-33.5897797535
 20
-5.4022934005
 10
-33.5418306629
 20
-5.4265309616
 10
-33.4918702882
 20
-5.4370594666
 10
-33.4792534195
 20
-5.4375
  0
LWPOLYLINE
  5
F1
330
1F
100
AcDbEntity
  8
0
  6
Continuous
 62
     7
370
    25
100
AcDbPolyline
 90
       22
 70
   128
 43
0.0
 10
-34.5790436747
 20
-3.2167449862
 10
-34.5976205582
 20
-3.2293009649
 10
-34.6921592668
 20
-3.3022360296
 10
-34.7823898123
 20
-3.3873600728
 10
-34.867664391
 20
-3.4840619523
 10
-34.9473707798
 20
-3.5916474037
 10
-35.0209367323
 20
-3.7093440247
 10
-35.0878340868
 20
-3.8363068207
 10
-35.1475825585
 20
-3.971624271
 10
-35.1997531873
 20
-4.1143248735
 10
-35.2439714178
 20
-4.2633841189
 10
-35.2799197883
 20
-4.417731847
 10
-35.3073402101
 20
-4.5762599288
 10
-35.3260358199
 20
-4.7378302229
 10
-35.3358723942
 20
-4.9012827468
 10
-35.3367793117
 20
-5.0654440044
 10
-35.3287500614
 20
-5.2291354113
 10
-35.3118422888
 20
-5.3911817564
 10
-35.286177382
 20
-5.5504196392
 10
-35.2519396003
 20
-5.7057058225
 10
-35.2093747517
 20
-5.8559254399
 10
-35.1587884275
 20
-6.0
  0
LWPOLYLINE
  5
F3
330
1F
100
AcDbEntity
  8
0
  6
Continuous
 62
     7
370
    25
100
AcDbPolyline
 90
       26
 70
   128
 43
0.0
 10
-34.6666223063
 20
-3.0625
 10
-34.7648524561
 20
-3.0685361489
 10
-34.8696013541
 20
-3.0884065135
 10
-34.9728929781
 20
-3.1220010306
 10
-35.0739857531
 20
-3.1690785109
 10
-35.1721538906
 20
-3.2293009649
 10
-35.2666925991
 20
-3.3022360296
 10
-35.3569231447
 20
-3.3873600728
 10
-35.4421977233
 20
-3.4840619523
 10
-35.5219041121
 20
-3.5916474037
 10
-35.5954700646
 20
-3.7093440247
 10
-35.6623674192
 20
-3.8363068207
 10
-35.7221158908
 20
-3.971624271
 10
-35.7742865196
 20
-4.1143248735
 10
-35.8185047501
 20
-4.2633841189
 10
-35.8544531207
 20
-4.417731847
 10
-35.8818735424
 20
-4.5762599288
 10
-35.9005691523
 20
-4.7378302229
 10
-35.9104057265
 20
-4.9012827468
 10
-35.911312644
 20
-5.0654440044
 10
-35.9032833938
 20
-5.2291354113
 10
-35.8863756211
 20
-5.3911817564
 10
-35.8607107143
 20
-5.5504196392
 10
-35.8264729327
 20
-5.7057058225
 10
-35.7839080841
 20
-5.8559254399
 10
-35.7333217598
 20
-6.0
  0
LWPOLYLINE
  5
F5
330
1F
100
AcDbEntity
  8
0
  6
Continuous
 62
     7
370
    25
100
AcDbPolyline
 90
        3
 70
   128
 43
0.0
 10
-34.7545346357
 20
-6.999559041
 10
-34.7546059167
 20
-6.9995613669
 10
-34.7815289728
 20
-7.0
  0
SPLINE
  5
F6
330
1F
100
AcDbEntity
  8
0
  6
Continuous
 62
     7
370
    25
100
AcDbSpline
210
0.0
220
0.0
230
1.0
 70
     8
 71
     3
 72
    10
 73
     6
 74
     0
 42
0.00000001
 43
0.00000001
 40
0.0
 40
0.0
 40
0.0
 40
0.0
 40
0.2832177528921055
 40
0.6416088764460529
 40
1.0
 40
1.0
 40
1.0
 40
1.0
 10
-35.64227031504925
 20
-6.8653976805986
 30
0.0
 10
-35.60063573278748
 20
-6.889084847989032
 30
0.0
 10
-35.50631566537122
 20
-6.942746374148224
 30
0.0
 10
-35.35184785624807
 20
-6.989527157883268
 30
0.0
 10
-35.23975082235614
 20
-6.996509052627758
 30
0.0
 10
-35.18370230541015
 20
-7.000000000000001
 30
0.0
  0
LWPOLYLINE
  5
F7
330
1F
100
AcDbEntity
  8
0
  6
Continuous
 62
     7
370
    25
100
AcDbPolyline
 90
       13
 70
   128
 43
0.0
 10
-35.1837023054
 20
-3.0
 10
-35.3515035436
 20
-3.0171102773
 10
-35.5164336561
 20
-3.0681483474
 10
-35.6756706429
 20
-3.152240935
 10
-35.8264899151
 20
-3.2679491924
 10
-35.9663109131
 20
-3.4132933194
 10
-36.0927412608
 20
-3.5857864376
 10
-36.2036176999
 20
-3.782477142
 10
-36.2970431039
 20
-4.0
 10
-36.3714189381
 20
-4.2346331353
 10
-36.4254726114
 20
-4.4823619098
 10
-36.4582792506
 20
-4.7389476156
 10
-36.4692775248
 20
-5.0
  0
LWPOLYLINE
  5
F8
330
1F
100
AcDbEntity
  8
0
  6
Continuous
 62
     7
370
    25
100
AcDbPolyline
 90
       36
 70
   128
 43
0.0
 10
-33.1827129514
 20
-5.0
 10
-33.1872322657
 20
-4.9218813585
 10
-33.2006449542
 20
-4.8462735145
 10
-33.2225199221
 20
-4.7756065661
 10
-33.2521540898
 20
-4.7121518074
 10
-33.2885949909
 20
-4.6579487264
 10
-33.3306713847
 20
-4.6147394548
 10
-33.3770309015
 20
-4.5839127741
 10
-33.4261835081
 20
-4.5664594792
 10
-33.4765493993
 20
-4.5629405334
 10
-33.526509774
 20
-4.5734690384
 10
-33.5744588646
 20
-4.5977065995
 10
-33.6188555479
 20
-4.6348742015
 10
-33.658272878
 20
-4.6837772471
 10
-33.6914439494
 20
-4.7428439521
 10
-33.7173026165
 20
-4.8101758641
 10
-33.7350177607
 20
-4.8836088801
 10
-33.7440200025
 20
-4.9607828024
 10
-33.7440200025
 20
-5.0392171976
 10
-33.7350177607
 20
-5.1163911199
 10
-33.7173026165
 20
-5.1898241359
 10
-33.6914439494
 20
-5.2571560479
 10
-33.658272878
 20
-5.3162227529
 10
-33.6188555479
 20
-5.3651257985
 10
-33.5744588646
 20
-5.4022934005
 10
-33.526509774
 20
-5.4265309616
 10
-33.4765493993
 20
-5.4370594666
 10
-33.4261835081
 20
-5.4335405208
 10
-33.3770309015
 20
-5.4160872259
 10
-33.3306713847
 20
-5.3852605452
 10
-33.2885949909
 20
-5.3420512736
 10
-33.2521540898
 20
-5.2878481926
 10
-33.2225199221
 20
-5.2243934339
 10
-33.2006449542
 20
-5.1537264855
 10
-33.1872322657
 20
-5.0781186415
 10
-33.1827129514
 20
-5.0
  0
SPLINE
  5
133
330
1F
100
AcDbEntity
  8
0
  6
Continuous
 62
     7
370
    25
100
AcDbSpline
210
0.0
220
0.0
230
1.0
 70
     8
 71
     3
 72
    38
 73
    34
 74
     0
 42
0.00000001
 43
0.00000001
 40
0.0
 40
0.0
 40
0.0
 40
0.0
 40
0.0624999999999999
 40
0.0624999999999999
 40
0.1249999999999998
 40
0.1249999999999998
 40
0.1874999999999997
 40
0.1874999999999997
 40
0.2499999999999996
 40
0.2499999999999996
 40
0.3124999999999994
 40
0.3124999999999994
 40
0.3749999999999993
 40
0.3749999999999993
 40
0.4374999999999992
 40
0.4374999999999992
 40
0.4999999999999991
 40
0.4999999999999991
 40
0.5624999999999992
 40
0.5624999999999992
 40
0.6249999999999993
 40
0.6249999999999993
 40
0.6874999999999994
 40
0.6874999999999994
 40
0.7499999999999996
 40
0.7499999999999996
 40
0.8124999999999997
 40
0.8124999999999997
 40
0.8749999999999998
 40
0.8749999999999998
 40
0.9374999999999999
 40
0.9374999999999999
 40
1.0
 40
1.0
 40
1.0
 40
1.0
 10
33.57500897484725
 20
-3.0
 30
0.0
 10
33.65914967618528
 20
-2.999999999998666
 30
0.0
 10
33.74328829701232
 20
-3.012892175758852
 30
0.0
 10
33.90833621973117
 20
-3.063966702620807
 30
0.0
 10
33.98924144054303
 20
-3.102147790820592
 30
0.0
 10
34.14471318418282
 20
-3.202334079120666
 30
0.0
 10
34.21927586271894
 20
-3.264336801952158
 30
0.0
 10
34.35919673536665
 20
-3.409784748819335
 30
0.0
 10
34.42455146970499
 20
-3.493226376415606
 30
0.0
 10
34.54354439068987
 20
-3.678346498816666
 30
0.0
 10
34.59717963504264
 20
-3.780020416225589
 30
0.0
 10
34.69067177314372
 20
-3.997698651672775
 30
0.0
 10
34.73052635514851
 20
-4.113697587266736
 30
0.0
 10
34.79492485993076
 20
-4.355568683249429
 30
0.0
 10
34.81946719035146
 20
-4.481434862985926
 30
0.0
 10
34.85229726339073
 20
-4.738203848927121
 30
0.0
 10
34.86058419423293
 20
-4.869100306105175
 30
0.0
 10
34.86058419423377
 20
-5.130899693874479
 30
0.0
 10
34.85229726339246
 20
-5.26179615105266
 30
0.0
 10
34.81946719035487
 20
-5.518565136994377
 30
0.0
 10
34.79492485993497
 20
-5.644431316731247
 30
0.0
 10
34.73052635515434
 20
-5.886302412714972
 30
0.0
 10
34.69067177315044
 20
-6.002301348309244
 30
0.0
 10
34.59717963505049
 20
-6.219979583758549
 30
0.0
 10
34.54354439069959
 20
-6.321653501166296
 30
0.0
 10
34.42455146971377
 20
-6.506773623572654
 30
0.0
 10
34.35919673537684
 20
-6.59021525116849
 30
0.0
 10
34.21927586273052
 20
-6.735663198037409
 30
0.0
 10
34.14471318419373
 20
-6.797665920870848
 30
0.0
 10
33.9892414405563
 20
-6.89785220917231
 30
0.0
 10
33.90833621974429
 20
-6.936033297373776
 30
0.0
 10
33.74328829702486
 20
-6.98710782423863
 30
0.0
 10
33.65914967620082
 20
-6.999999999999998
 30
0.0
 10
33.57500897486032
 20
-7.000000000000001
 30
0.0
  0
LWPOLYLINE
  5
134
330
1F
100
AcDbEntity
  8
0
  6
Continuous
 62
     7
370
    25
100
AcDbPolyline
 90
       39
 70
   128
 43
0.0
 10
34.0018782195
 20
-3.0003690585
 10
34.0041053635
 20
-3.0004386331
 10
34.1115615096
 20
-3.0109562093
 10
34.2180750821
 20
-3.0354254985
 10
34.3228989649
 20
-3.0736748664
 10
34.4252978937
 20
-3.125436021
 10
34.5245536137
 20
-3.1903458951
 10
34.6199699172
 20
-3.2679491924
 10
34.7108775275
 20
-3.3577015817
 10
34.796638793
 20
-3.4589735144
 10
34.87665216
 20
-3.5710546407
 10
34.9503563922
 20
-3.693158792
 10
35.0172345075
 20
-3.8244294954
 10
35.0768174039
 20
-3.9639459813
 10
35.1286871502
 20
-4.1107296416
 10
35.1724799173
 20
-4.2637508946
 10
35.2078885305
 20
-4.4219364061
 10
35.2346646239
 20
-4.5841766184
 10
35.2526203823
 20
-4.7493335329
 10
35.261629859
 20
-4.9162486925
 10
35.261629859
 20
-5.0837513075
 10
35.2526203823
 20
-5.2506664671
 10
35.2346646239
 20
-5.4158233816
 10
35.2078885305
 20
-5.5780635939
 10
35.1724799173
 20
-5.7362491054
 10
35.1286871502
 20
-5.8892703584
 10
35.0768174039
 20
-6.0360540187
 10
35.0172345075
 20
-6.1755705046
 10
34.9503563922
 20
-6.306841208
 10
34.87665216
 20
-6.4289453593
 10
34.796638793
 20
-6.5410264856
 10
34.7108775275
 20
-6.6422984183
 10
34.6199699172
 20
-6.7320508076
 10
34.5245536137
 20
-6.8096541049
 10
34.4252978937
 20
-6.874563979
 10
34.3228989649
 20
-6.9263251336
 10
34.2180750821
 20
-6.9645745015
 10
34.1115615096
 20
-6.9890437907
 10
34.0041766446
 20
-6.999559041
  0
LWPOLYLINE
  5
135
330
1F
100
AcDbEntity
  8
0
  6
Continuous
 62
     7
370
    25
100
AcDbPolyline
 90
       20
 70
   128
 43
0.0
 10
36.0671041921
 20
-5.0
 10
36.0625954989
 20
-4.8326443133
 10
36.0491010444
 20
-4.6664625066
 10
36.0267154826
 20
-4.5026202257
 10
35.9955958321
 20
-4.3422667065
 10
35.9559603749
 20
-4.1865267138
 10
35.9080871252
 20
-4.0364926518
 10
35.8523118795
 20
-3.8932169015
 10
35.7890258611
 20
-3.7577044394
 10
35.7186729759
 20
-3.6309057881
 10
35.6417466988
 20
-3.513710349
 10
35.5587866125
 20
-3.406940164
 10
35.4703746223
 20
-3.311344149
 10
35.3771308748
 20
-3.2275928415
 10
35.2797094078
 20
-3.1562736968
 10
35.1787935631
 20
-3.0978869674
 10
35.0750911927
 20
-3.0528421943
 10
34.9693296943
 20
-3.0214553341
 10
34.8622509087
 20
-3.0039465431
 10
34.7815289728
 20
-3.0
  0
LWPOLYLINE
  5
136
330
1F
100
AcDbEntity
  8
0
  6
Continuous
 62
     7
370
    25
100
AcDbPolyline
 90
       20
 70
   128
 43
0.0
 10
34.8123830533
 20
-6.9994239068
 10
34.8622509087
 20
-6.9960534569
 10
34.9693296943
 20
-6.9785446659
 10
35.0750911927
 20
-6.9471578057
 10
35.1787935631
 20
-6.9021130326
 10
35.2797094078
 20
-6.8437263032
 10
35.3771308748
 20
-6.7724071585
 10
35.4703746223
 20
-6.688655851
 10
35.5587866125
 20
-6.593059836
 10
35.6417466988
 20
-6.486289651
 10
35.7186729759
 20
-6.3690942119
 10
35.7890258611
 20
-6.2422955606
 10
35.8523118795
 20
-6.1067830985
 10
35.9080871252
 20
-5.9635073482
 10
35.9559603749
 20
-5.8134732862
 10
35.9955958321
 20
-5.6577332935
 10
36.0267154826
 20
-5.4973797743
 10
36.0491010444
 20
-5.3335374934
 10
36.0625954989
 20
-5.1673556867
 10
36.0671041921
 20
-5.0
  0
LWPOLYLINE
  5
137
330
1F
100
AcDbEntity
  8
0
  6
Continuous
 62
     7
370
    25
100
AcDbPolyline
 90
       22
 70
   128
 43
0.0
 10
35.9262209869
 20
-5.0
 10
35.921699961
 20
-5.1633331176
 10
35.9081703556
 20
-5.3254569739
 10
35.885732339
 20
-5.4851712607
 10
35.8545520346
 20
-5.6412935092
 10
35.8148602903
 20
-5.792667845
 10
35.7669509699
 20
-5.9381735453
 10
35.7111787774
 20
-6.076733337
 10
35.6479566304
 20
-6.2073213717
 10
35.5777526038
 20
-6.3289708214
 10
35.5010864634
 20
-6.4407810361
 10
35.4185258186
 20
-6.5419242121
 10
35.3306819195
 20
-6.6316515207
 10
35.2382051316
 20
-6.7092986523
 10
35.1417801207
 20
-6.7742907348
 10
35.0421207839
 20
-6.8261465894
 10
34.9399649639
 20
-6.8644822935
 10
34.8360689868
 20
-6.8890140231
 10
34.7312020621
 20
-6.8995601538
 10
34.6261405876
 20
-6.8960426056
 10
34.5216624019
 20
-6.8784874214
 10
34.4679933012
 20
-6.8639029931
  0
LWPOLYLINE
  5
138
330
1F
100
AcDbEntity
  8
0
  6
Continuous
 62
     7
370
    25
100
AcDbPolyline
 90
       12
 70
   128
 43
0.0
 10
35.4619502649
 20
-3.5090376958
 10
35.5010864634
 20
-3.5592189639
 10
35.5777526038
 20
-3.6710291786
 10
35.6479566304
 20
-3.7926786283
 10
35.7111787774
 20
-3.923266663
 10
35.7669509699
 20
-4.0618264547
 10
35.8148602903
 20
-4.207332155
 10
35.8545520346
 20
-4.3587064908
 10
35.885732339
 20
-4.5148287393
 10
35.9081703556
 20
-4.6745430261
 10
35.921699961
 20
-4.8366668824
 10
35.9262209869
 20
-5.0
  0
SPLINE
  5
139
330
1F
100
AcDbEntity
  8
0
  6
Continuous
 62
     7
370
    25
100
AcDbSpline
210
0.0
220
0.0
230
1.0
 70
     8
 71
     3
 72
    17
 73
    13
 74
     0
 42
0.00000001
 43
0.00000001
 40
0.0
 40
0.0
 40
0.0
 40
0.0
 40
0.0227750232053836
 40
0.1313555761825644
 40
0.2399361291597429
 40
0.3485166821369226
 40
0.4570972351141021
 40
0.5656777880912824
 40
0.6742583410684612
 40
0.7828388940456412
 40
0.8914194470228207
 40
1.0
 40
1.0
 40
1.0
 40
1.0
 10
35.64227031504956
 20
-3.134602319401566
 30
0.0
 10
35.65344603505695
 20
-3.140309775141863
 30
0.0
 10
35.71790230926519
 20
-3.173227683964277
 30
0.0
 10
35.82793266124177
 20
-3.264723927210821
 30
0.0
 10
35.96865539421005
 20
-3.408292484795714
 30
0.0
 10
36.09531124024137
 20
-3.581866050111495
 30
0.0
 10
36.20654720934979
 20
-3.778961940519729
 30
0.0
 10
36.30020612173193
 20
-3.997149039704933
 30
0.0
 10
36.37488692690039
 20
-4.232441900660539
 30
0.0
 10
36.42875979922233
 20
-4.480882169271831
 30
0.0
 10
36.46290954484924
 20
-4.738200881021888
 30
0.0
 10
36.46715486480522
 20
-4.912733627007295
 30
0.0
 10
36.46927752478322
 20
-4.999999999999998
 30
0.0
  0
SPLINE
  5
13A
330
1F
100
AcDbEntity
  8
0
  6
Continuous
 62
     7
370
    25
100
AcDbSpline
210
0.0
220
0.0
230
1.0
 70
     8
 71
     3
 72
    38
 73
    34
 74
     0
 42
0.00000001
 43
0.00000001
 40
0.0
 40
0.0
 40
0.0
 40
0.0
 40
0.0625000000000001
 40
0.0625000000000001
 40
0.1250000000000002
 40
0.1250000000000002
 40
0.1875000000000003
 40
0.1875000000000003
 40
0.2500000000000004
 40
0.2500000000000004
 40
0.3125000000000006
 40
0.3125000000000006
 40
0.3750000000000007
 40
0.3750000000000007
 40
0.4375000000000008
 40
0.4375000000000008
 40
0.5000000000000009
 40
0.5000000000000009
 40
0.5625000000000008
 40
0.5625000000000008
 40
0.6250000000000007
 40
0.6250000000000007
 40
0.6875000000000006
 40
0.6875000000000006
 40
0.7500000000000004
 40
0.7500000000000004
 40
0.8125000000000003
 40
0.8125000000000003
 40
0.8750000000000002
 40
0.8750000000000002
 40
0.9375000000000001
 40
0.9375000000000001
 40
1.0
 40
1.0
 40
1.0
 40
1.0
 10
-33.57500897486032
 20
-7.000000000000001
 30
0.0
 10
-33.65914967621095
 20
-6.999999999999998
 30
0.0
 10
-33.74328829701693
 20
-6.987107824241066
 30
0.0
 10
-33.90833621975192
 20
-6.936033297371424
 30
0.0
 10
-33.9892414405458
 20
-6.897852209179037
 30
0.0
 10
-34.14471318420372
 20
-6.797665920864447
 30
0.0
 10
-34.21927586272253
 20
-6.735663198045649
 30
0.0
 10
-34.35919673538413
 20
-6.590215251160942
 30
0.0
 10
-34.42455146970762
 20
-6.506773623582139
 30
0.0
 10
-34.54354439070502
 20
-6.321653501157974
 30
0.0
 10
-34.59717963504446
 20
-6.219979583772441
 30
0.0
 10
-34.6906717731557
 20
-6.00230134829706
 30
0.0
 10
-34.73052635515013
 20
-5.886302412730544
 30
0.0
 10
-34.79492485993856
 20
-5.644431316717946
 30
0.0
 10
-34.81946719035263
 20
-5.51856513701135
 30
0.0
 10
-34.85229726339432
 20
-5.261796151038475
 30
0.0
 10
-34.8605841942337
 20
-5.130899693891379
 30
0.0
 10
-34.86058419423298
 20
-4.86910030609152
 30
0.0
 10
-34.85229726339288
 20
-4.738203848944533
 30
0.0
 10
-34.81946719034977
 20
-4.4814348629721
 30
0.0
 10
-34.79492485993502
 20
-4.355568683265827
 30
0.0
 10
-34.73052635514525
 20
-4.113697587254088
 30
0.0
 10
-34.69067177315017
 20
-3.997698651688104
 30
0.0
 10
-34.59717963503775
 20
-3.780020416213966
 30
0.0
 10
-34.54354439069773
 20
-3.678346498829141
 30
0.0
 10
-34.42455146969933
 20
-3.493226376406563
 30
0.0
 10
-34.35919673537538
 20
-3.409784748828628
 30
0.0
 10
-34.21927586271299
 20
-3.264336801945783
 30
0.0
 10
-34.14471318419383
 20
-3.202334079127974
 30
0.0
 10
-33.98924144053537
 20
-3.102147790815452
 30
0.0
 10
-33.90833621974128
 20
-3.063966702624142
 30
0.0
 10
-33.74328829700601
 20
-3.012892175756695
 30
0.0
 10
-33.65914967619995
 20
-2.999999999998881
 30
0.0
 10
-33.57500897484933
 20
-3.0
 30
0.0
  0
LWPOLYLINE
  5
13B
330
1F
100
AcDbEntity
  8
0
  6
Continuous
 62
     7
370
    25
100
AcDbPolyline
 90
       40
 70
   128
 43
0.0
 10
-33.9910768034
 20
-3.0001168163
 10
-34.0041053635
 20
-3.0004386331
 10
-34.1115615096
 20
-3.0109562093
 10
-34.2180750821
 20
-3.0354254985
 10
-34.3228989649
 20
-3.0736748664
 10
-34.4252978937
 20
-3.125436021
 10
-34.5245536137
 20
-3.1903458951
 10
-34.6199699172
 20
-3.2679491924
 10
-34.7108775275
 20
-3.3577015817
 10
-34.796638793
 20
-3.4589735144
 10
-34.87665216
 20
-3.5710546407
 10
-34.9503563922
 20
-3.693158792
 10
-35.0172345075
 20
-3.8244294954
 10
-35.0768174039
 20
-3.9639459813
 10
-35.1286871502
 20
-4.1107296416
 10
-35.1724799173
 20
-4.2637508946
 10
-35.2078885305
 20
-4.4219364061
 10
-35.2346646239
 20
-4.5841766184
 10
-35.2526203823
 20
-4.7493335329
 10
-35.261629859
 20
-4.9162486925
 10
-35.261629859
 20
-5.0837513075
 10
-35.2526203823
 20
-5.2506664671
 10
-35.2346646239
 20
-5.4158233816
 10
-35.2078885305
 20
-5.5780635939
 10
-35.1724799173
 20
-5.7362491054
 10
-35.1286871502
 20
-5.8892703584
 10
-35.0768174039
 20
-6.0360540187
 10
-35.0172345075
 20
-6.1755705046
 10
-34.9503563922
 20
-6.306841208
 10
-34.87665216
 20
-6.4289453593
 10
-34.796638793
 20
-6.5410264856
 10
-34.7108775275
 20
-6.6422984183
 10
-34.6199699172
 20
-6.7320508076
 10
-34.5245536137
 20
-6.8096541049
 10
-34.4252978937
 20
-6.874563979
 10
-34.3228989649
 20
-6.9263251336
 10
-34.2180750821
 20
-6.9645745015
 10
-34.1115615096
 20
-6.9890437907
 10
-34.0041053635
 20
-6.9995613669
 10
-33.9771823075
 20
-7.0
  0
LWPOLYLINE
  5
13C
330
1F
100
AcDbEntity
  8
0
  6
Continuous
 62
     7
370
    25
100
AcDbPolyline
 90
       20
 70
   128
 43
0.0
 10
-36.0671041921
 20
-5.0
 10
-36.0625954989
 20
-4.8326443133
 10
-36.0491010444
 20
-4.6664625066
 10
-36.0267154826
 20
-4.5026202257
 10
-35.9955958321
 20
-4.3422667065
 10
-35.9559603749
 20
-4.1865267138
 10
-35.9080871252
 20
-4.0364926518
 10
-35.8523118795
 20
-3.8932169015
 10
-35.7890258611
 20
-3.7577044394
 10
-35.7186729759
 20
-3.6309057881
 10
-35.6417466988
 20
-3.513710349
 10
-35.5587866125
 20
-3.406940164
 10
-35.4703746223
 20
-3.311344149
 10
-35.3771308748
 20
-3.2275928415
 10
-35.2797094078
 20
-3.1562736968
 10
-35.1787935631
 20
-3.0978869674
 10
-35.0750911927
 20
-3.0528421943
 10
-34.9693296943
 20
-3.0214553341
 10
-34.8622509087
 20
-3.0039465431
 10
-34.7815289728
 20
-3.0
  0
LWPOLYLINE
  5
13D
330
1F
100
AcDbEntity
  8
0
  6
Continuous
 62
     7
370
    25
100
AcDbPolyline
 90
       20
 70
   128
 43
0.0
 10
-34.7815289728
 20
-7.0
 10
-34.8622509087
 20
-6.9960534569
 10
-34.9693296943
 20
-6.9785446659
 10
-35.0750911927
 20
-6.9471578057
 10
-35.1787935631
 20
-6.9021130326
 10
-35.2797094078
 20
-6.8437263032
 10
-35.3771308748
 20
-6.7724071585
 10
-35.4703746223
 20
-6.688655851
 10
-35.5587866125
 20
-6.593059836
 10
-35.6417466988
 20
-6.486289651
 10
-35.7186729759
 20
-6.3690942119
 10
-35.7890258611
 20
-6.2422955606
 10
-35.8523118795
 20
-6.1067830985
 10
-35.9080871252
 20
-5.9635073482
 10
-35.9559603749
 20
-5.8134732862
 10
-35.9955958321
 20
-5.6577332935
 10
-36.0267154826
 20
-5.4973797743
 10
-36.0491010444
 20
-5.3335374934
 10
-36.0625954989
 20
-5.1673556867
 10
-36.0671041921
 20
-5.0
  0
LWPOLYLINE
  5
13E
330
1F
100
AcDbEntity
  8
0
  6
Continuous
 62
     7
370
    25
100
AcDbPolyline
 90
       22
 70
   128
 43
0.0
 10
-35.9262209869
 20
-5.0
 10
-35.921699961
 20
-5.1633331176
 10
-35.9081703556
 20
-5.3254569739
 10
-35.885732339
 20
-5.4851712607
 10
-35.8545520346
 20
-5.6412935092
 10
-35.8148602903
 20
-5.792667845
 10
-35.7669509699
 20
-5.9381735453
 10
-35.7111787774
 20
-6.076733337
 10
-35.6479566304
 20
-6.2073213717
 10
-35.5777526038
 20
-6.3289708214
 10
-35.5010864634
 20
-6.4407810361
 10
-35.4185258186
 20
-6.5419242121
 10
-35.3306819195
 20
-6.6316515207
 10
-35.2382051316
 20
-6.7092986523
 10
-35.1417801207
 20
-6.7742907348
 10
-35.0421207839
 20
-6.8261465894
 10
-34.9399649639
 20
-6.8644822935
 10
-34.8360689868
 20
-6.8890140231
 10
-34.7312020621
 20
-6.8995601538
 10
-34.6261405876
 20
-6.8960426056
 10
-34.5216624019
 20
-6.8784874214
 10
-34.4675407764
 20
-6.8637636334
  0
LWPOLYLINE
  5
13F
330
1F
100
AcDbEntity
  8
0
  6
Continuous
 62
     7
370
    25
100
AcDbPolyline
 90
       12
 70
   128
 43
0.0
 10
-35.4619502649
 20
-3.5090376958
 10
-35.5010864634
 20
-3.5592189639
 10
-35.5777526038
 20
-3.6710291786
 10
-35.6479566304
 20
-3.7926786283
 10
-35.7111787774
 20
-3.923266663
 10
-35.7669509699
 20
-4.0618264547
 10
-35.8148602903
 20
-4.207332155
 10
-35.8545520346
 20
-4.3587064908
 10
-35.885732339
 20
-4.5148287393
 10
-35.9081703556
 20
-4.6745430261
 10
-35.921699961
 20
-4.8366668824
 10
-35.9262209869
 20
-5.0
  0
SPLINE
  5
140
330
1F
100
AcDbEntity
  8
0
  6
Continuous
 62
     7
370
    25
100
AcDbSpline
210
0.0
220
0.0
230
1.0
 70
     8
 71
     3
 72
    17
 73
    13
 74
     0
 42
0.00000001
 43
0.00000001
 40
0.0
 40
0.0
 40
0.0
 40
0.0
 40
0.1085805529771562
 40
0.2171611059543129
 40
0.3257416589314687
 40
0.4343222119086254
 40
0.5429027648857817
 40
0.6514833178629386
 40
0.7600638708400936
 40
0.8686444238172503
 40
0.9772249767944078
 40
1.0
 40
1.0
 40
1.0
 40
1.0
 10
-36.46927752478322
 20
-5.0
 30
0.0
 10
-36.46715486480522
 20
-5.087266372992705
 30
0.0
 10
-36.46290954484925
 20
-5.261799118978114
 30
0.0
 10
-36.42875979922233
 20
-5.519117830728167
 30
0.0
 10
-36.37488692690038
 20
-5.767558099339461
 30
0.0
 10
-36.30020612173193
 20
-6.002850960295068
 30
0.0
 10
-36.20654720934977
 20
-6.221038059480267
 30
0.0
 10
-36.09531124024139
 20
-6.418133949888506
 30
0.0
 10
-35.96865539421006
 20
-6.591707515204286
 30
0.0
 10
-35.82793266124179
 20
-6.735276072789184
 30
0.0
 10
-35.71790230926507
 20
-6.82677231603579
 30
0.0
 10
-35.65344603505675
 20
-6.859690224858251
 30
0.0
 10
-35.64227031504925
 20
-6.8653976805986
 30
0.0
  0
LINE
  5
141
330
1F
100
AcDbEntity
  8
0
  6
Continuous
 62
     7
370
    25
100
AcDbLine
 10
11.6875
 20
3.0625
 30
0.0
 11
11.875
 21
3.0625
 31
0.0
  0
LINE
  5
142
330
1F
100
AcDbEntity
  8
0
  6
Continuous
 62
     7
370
    25
100
AcDbLine
 10
12.125
 20
3.0625
 30
0.0
 11
12.3125
 21
3.0625
 31
0.0
  0
LINE
  5
143
330
1F
100
AcDbEntity
  8
0
  6
Continuous
 62
     7
370
    25
100
AcDbLine
 10
12.3125
 20
3.4375
 30
0.0
 11
12.125
 21
3.4375
 31
0.0
  0
LINE
  5
144
330
1F
100
AcDbEntity
  8
0
  6
Continuous
 62
     7
370
    25
100
AcDbLine
 10
11.875
 20
3.4375
 30
0.0
 11
11.6875
 21
3.4375
 31
0.0
  0
LINE
  5
145
330
1F
100
AcDbEntity
  8
0
  6
Continuous
 62
     7
370
    25
100
AcDbLine
 10
11.6875
 20
9.0625
 30
0.0
 11
11.875
 21
9.0625
 31
0.0
  0
LINE
  5
146
330
1F
100
AcDbEntity
  8
0
  6
Continuous
 62
     7
370
    25
100
AcDbLine
 10
12.125
 20
9.0625
 30
0.0
 11
12.3125
 21
9.0625
 31
0.0
  0
LINE
  5
147
330
1F
100
AcDbEntity
  8
0
  6
Continuous
 62
     7
370
    25
100
AcDbLine
 10
12.3125
 20
9.4375
 30
0.0
 11
12.125
 21
9.4375
 31
0.0
  0
LINE
  5
148
330
1F
100
AcDbEntity
  8
0
  6
Continuous
 62
     7
370
    25
100
AcDbLine
 10
11.875
 20
9.4375
 30
0.0
 11
11.6875
 21
9.4375
 31
0.0
  0
LINE
  5
149
330
1F
100
AcDbEntity
  8
0
  6
Continuous
 62
     7
370
    25
100
AcDbLine
 10
11.6875
 20
15.0625
 30
0.0
 11
11.875
 21
15.0625
 31
0.0
  0
LINE
  5
14A
330
1F
100
AcDbEntity
  8
0
  6
Continuous
 62
     7
370
    25
100
AcDbLine
 10
12.125
 20
15.0625
 30
0.0
 11
12.3125
 21
15.0625
 31
0.0
  0
LINE
  5
14B
330
1F
100
AcDbEntity
  8
0
  6
Continuous
 62
     7
370
    25
100
AcDbLine
 10
12.3125
 20
15.4375
 30
0.0
 11
12.125
 21
15.4375
 31
0.0
  0
LINE
  5
14C
330
1F
100
AcDbEntity
  8
0
  6
Continuous
 62
     7
370
    25
100
AcDbLine
 10
11.875
 20
15.4375
 30
0.0
 11
11.6875
 21
15.4375
 31
0.0
  0
LINE
  5
14D
330
1F
100
AcDbEntity
  8
0
  6
Continuous
 62
     7
370
    25
100
AcDbLine
 10
11.6875
 20
21.0625
 30
0.0
 11
11.875
 21
21.0625
 31
0.0
  0
LINE
  5
14E
330
1F
100
AcDbEntity
  8
0
  6
Continuous
 62
     7
370
    25
100
AcDbLine
 10
12.125
 20
21.0625
 30
0.0
 11
12.3125
 21
21.0625
 31
0.0
  0
LINE
  5
14F
330
1F
100
AcDbEntity
  8
0
  6
Continuous
 62
     7
370
    25
100
AcDbLine
 10
12.3125
 20
21.4375
 30
0.0
 11
12.125
 21
21.4375
 31
0.0
  0
LINE
  5
150
330
1F
100
AcDbEntity
  8
0
  6
Continuous
 62
     7
370
    25
100
AcDbLine
 10
11.875
 20
21.4375
 30
0.0
 11
11.6875
 21
21.4375
 31
0.0
  0
LINE
  5
151
330
1F
100
AcDbEntity
  8
0
  6
Continuous
 62
     7
370
    25
100
AcDbLine
 10
33.5750089749
 20
-7.0
 30
0.0
 11
33.9771823075
 21
-7.0
 31
0.0
  0
LINE
  5
152
330
1F
100
AcDbEntity
  8
0
  6
Continuous
 62
     7
370
    25
100
AcDbLine
 10
34.6666223063
 20
-3.0625
 30
0.0
 11
34.30389629
 21
-3.0625
 31
0.0
  0
LINE
  5
153
330
1F
100
AcDbEntity
  8
0
  6
Continuous
 62
     7
370
    25
100
AcDbLine
 10
34.7815289728
 20
-7.0
 30
0.0
 11
35.1837023054
 21
-7.0
 31
0.0
  0
LINE
  5
154
330
1F
100
AcDbEntity
  8
0
  6
Continuous
 62
     7
370
    25
100
AcDbLine
 10
33.4639325306
 20
-5.4375
 30
0.0
 11
33.4792534195
 21
-5.4375
 31
0.0
  0
LINE
  5
155
330
1F
100
AcDbEntity
  8
0
  6
Continuous
 62
     7
370
    25
100
AcDbLine
 10
33.4792534195
 20
-4.5625
 30
0.0
 11
33.4639325306
 21
-4.5625
 31
0.0
  0
LINE
  5
156
330
1F
100
AcDbEntity
  8
0
  6
Continuous
 62
     7
370
    25
100
AcDbLine
 10
33.0
 20
-3.0
 30
0.0
 11
33.0
 21
-3.2076852624
 31
0.0
  0
LINE
  5
157
330
1F
100
AcDbEntity
  8
0
  6
Continuous
 62
     7
370
    25
100
AcDbLine
 10
-33.9771823075
 20
-7.0
 30
0.0
 11
-33.5750089749
 21
-7.0
 31
0.0
  0
LINE
  5
158
330
1F
100
AcDbEntity
  8
0
  6
Continuous
 62
     7
370
    25
100
AcDbLine
 10
-34.3030013103
 20
-3.0625
 30
0.0
 11
-34.6666223063
 21
-3.0625
 31
0.0
  0
LINE
  5
159
330
1F
100
AcDbEntity
  8
0
  6
Continuous
 62
     7
370
    25
100
AcDbLine
 10
-35.1837023054
 20
-7.0
 30
0.0
 11
-34.7815289728
 21
-7.0
 31
0.0
  0
LINE
  5
15A
330
1F
100
AcDbEntity
  8
0
  6
Continuous
 62
     7
370
    25
100
AcDbLine
 10
-33.4639325306
 20
-4.5625
 30
0.0
 11
-33.4792534195
 21
-4.5625
 31
0.0
  0
LINE
  5
15B
330
1F
100
AcDbEntity
  8
0
  6
Continuous
 62
     7
370
    25
100
AcDbLine
 10
-33.4792534195
 20
-5.4375
 30
0.0
 11
-33.4639325306
 21
-5.4375
 31
0.0
  0
LINE
  5
15C
330
1F
100
AcDbEntity
  8
0
  6
Continuous
 62
     7
370
    25
100
AcDbLine
 10
-33.0
 20
-3.2071832558
 30
0.0
 11
-33.0
 21
-3.0
 31
0.0
  0
LINE
  5
15D
330
1F
100
AcDbEntity
  8
0
  6
Continuous
 62
     7
370
    25
100
AcDbLine
 10
35.875
 20
21.4375
 30
0.0
 11
35.6875
 21
21.4375
 31
0.0
  0
LINE
  5
15E
330
1F
100
AcDbEntity
  8
0
  6
Continuous
 62
     7
370
    25
100
AcDbLine
 10
35.6875
 20
21.0625
 30
0.0
 11
35.875
 21
21.0625
 31
0.0
  0
LINE
  5
15F
330
1F
100
AcDbEntity
  8
0
  6
Continuous
 62
     7
370
    25
100
AcDbLine
 10
35.875
 20
15.4375
 30
0.0
 11
35.6875
 21
15.4375
 31
0.0
  0
LINE
  5
160
330
1F
100
AcDbEntity
  8
0
  6
Continuous
 62
     7
370
    25
100
AcDbLine
 10
35.6875
 20
15.0625
 30
0.0
 11
35.875
 21
15.0625
 31
0.0
  0
LINE
  5
161
330
1F
100
AcDbEntity
  8
0
  6
Continuous
 62
     7
370
    25
100
AcDbLine
 10
35.875
 20
9.4375
 30
0.0
 11
35.6875
 21
9.4375
 31
0.0
  0
LINE
  5
162
330
1F
100
AcDbEntity
  8
0
  6
Continuous
 62
     7
370
    25
100
AcDbLine
 10
35.6875
 20
9.0625
 30
0.0
 11
35.875
 21
9.0625
 31
0.0
  0
LINE
  5
163
330
1F
100
AcDbEntity
  8
0
  6
Continuous
 62
     7
370
    25
100
AcDbLine
 10
-35.875
 20
21.0625
 30
0.0
 11
-35.6875
 21
21.0625
 31
0.0
  0
LINE
  5
164
330
1F
100
AcDbEntity
  8
0
  6
Continuous
 62
     7
370
    25
100
AcDbLine
 10
-35.6875
 20
21.4375
 30
0.0
 11
-35.875
 21
21.4375
 31
0.0
  0
LINE
  5
165
330
1F
100
AcDbEntity
  8
0
  6
Continuous
 62
     7
370
    25
100
AcDbLine
 10
-35.875
 20
15.0625
 30
0.0
 11
-35.6875
 21
15.0625
 31
0.0
  0
LINE
  5
166
330
1F
100
AcDbEntity
  8
0
  6
Continuous
 62
     7
370
    25
100
AcDbLine
 10
-35.6875
 20
15.4375
 30
0.0
 11
-35.875
 21
15.4375
 31
0.0
  0
LINE
  5
167
330
1F
100
AcDbEntity
  8
0
  6
Continuous
 62
     7
370
    25
100
AcDbLine
 10
-35.875
 20
9.0625
 30
0.0
 11
-35.6875
 21
9.0625
 31
0.0
  0
LINE
  5
168
330
1F
100
AcDbEntity
  8
0
  6
Continuous
 62
     7
370
    25
100
AcDbLine
 10
-35.6875
 20
9.4375
 30
0.0
 11
-35.875
 21
9.4375
 31
0.0
  0
LINE
  5
169
330
1F
100
AcDbEntity
  8
0
  6
Continuous
 62
     7
370
    25
100
AcDbLine
 10
-12.3125
 20
21.0625
 30
0.0
 11
-12.125
 21
21.0625
 31
0.0
  0
LINE
  5
16A
330
1F
100
AcDbEntity
  8
0
  6
Continuous
 62
     7
370
    25
100
AcDbLine
 10
-11.875
 20
21.0625
 30
0.0
 11
-11.6875
 21
21.0625
 31
0.0
  0
LINE
  5
16B
330
1F
100
AcDbEntity
  8
0
  6
Continuous
 62
     7
370
    25
100
AcDbLine
 10
-11.6875
 20
21.4375
 30
0.0
 11
-11.875
 21
21.4375
 31
0.0
  0
LINE
  5
16C
330
1F
100
AcDbEntity
  8
0
  6
Continuous
 62
     7
370
    25
100
AcDbLine
 10
-12.125
 20
21.4375
 30
0.0
 11
-12.3125
 21
21.4375
 31
0.0
  0
LINE
  5
16D
330
1F
100
AcDbEntity
  8
0
  6
Continuous
 62
     7
370
    25
100
AcDbLine
 10
-12.3125
 20
15.0625
 30
0.0
 11
-12.125
 21
15.0625
 31
0.0
  0
LINE
  5
16E
330
1F
100
AcDbEntity
  8
0
  6
Continuous
 62
     7
370
    25
100
AcDbLine
 10
-11.875
 20
15.0625
 30
0.0
 11
-11.6875
 21
15.0625
 31
0.0
  0
LINE
  5
16F
330
1F
100
AcDbEntity
  8
0
  6
Continuous
 62
     7
370
    25
100
AcDbLine
 10
-11.6875
 20
15.4375
 30
0.0
 11
-11.875
 21
15.4375
 31
0.0
  0
LINE
  5
170
330
1F
100
AcDbEntity
  8
0
  6
Continuous
 62
     7
370
    25
100
AcDbLine
 10
-12.125
 20
15.4375
 30
0.0
 11
-12.3125
 21
15.4375
 31
0.0
  0
LINE
  5
171
330
1F
100
AcDbEntity
  8
0
  6
Continuous
 62
     7
370
    25
100
AcDbLine
 10
-12.3125
 20
9.0625
 30
0.0
 11
-12.125
 21
9.0625
 31
0.0
  0
LINE
  5
172
330
1F
100
AcDbEntity
  8
0
  6
Continuous
 62
     7
370
    25
100
AcDbLine
 10
-11.875
 20
9.0625
 30
0.0
 11
-11.6875
 21
9.0625
 31
0.0
  0
LINE
  5
173
330
1F
100
AcDbEntity
  8
0
  6
Continuous
 62
     7
370
    25
100
AcDbLine
 10
-11.6875
 20
9.4375
 30
0.0
 11
-11.875
 21
9.4375
 31
0.0
  0
LINE
  5
174
330
1F
100
AcDbEntity
  8
0
  6
Continuous
 62
     7
370
    25
100
AcDbLine
 10
-12.125
 20
9.4375
 30
0.0
 11
-12.3125
 21
9.4375
 31
0.0
  0
LINE
  5
175
330
1F
100
AcDbEntity
  8
0
  6
Continuous
 62
     7
370
    25
100
AcDbLine
 10
-12.3125
 20
3.0625
 30
0.0
 11
-12.125
 21
3.0625
 31
0.0
  0
LINE
  5
176
330
1F
100
AcDbEntity
  8
0
  6
Continuous
 62
     7
370
    25
100
AcDbLine
 10
-11.875
 20
3.0625
 30
0.0
 11
-11.6875
 21
3.0625
 31
0.0
  0
LINE
  5
177
330
1F
100
AcDbEntity
  8
0
  6
Continuous
 62
     7
370
    25
100
AcDbLine
 10
-11.6875
 20
3.4375
 30
0.0
 11
-11.875
 21
3.4375
 31
0.0
  0
LINE
  5
178
330
1F
100
AcDbEntity
  8
0
  6
Continuous
 62
     7
370
    25
100
AcDbLine
 10
-12.125
 20
3.4375
 30
0.0
 11
-12.3125
 21
3.4375
 31
0.0
  0
LINE
  5
179
330
1F
100
AcDbEntity
  8
0
  6
Continuous
 62
     7
370
    25
100
AcDbLine
 10
35.875
 20
3.4375
 30
0.0
 11
35.6875
 21
3.4375
 31
0.0
  0
LINE
  5
17A
330
1F
100
AcDbEntity
  8
0
  6
Continuous
 62
     7
370
    25
100
AcDbLine
 10
35.6875
 20
3.0625
 30
0.0
 11
35.875
 21
3.0625
 31
0.0
  0
LINE
  5
17B
330
1F
100
AcDbEntity
  8
0
  6
Continuous
 62
     7
370
    25
100
AcDbLine
 10
-35.875
 20
3.0625
 30
0.0
 11
-35.6875
 21
3.0625
 31
0.0
  0
LINE
  5
17C
330
1F
100
AcDbEntity
  8
0
  6
Continuous
 62
     7
370
    25
100
AcDbLine
 10
-35.6875
 20
3.4375
 30
0.0
 11
-35.875
 21
3.4375
 31
0.0
  0
LINE
  5
17D
330
1F
100
AcDbEntity
  8
0
  6
Continuous
 62
     7
370
    25
100
AcDbLine
 10
35.6875
 20
24.0
 30
0.0
 11
12.3125
 21
24.0
 31
0.0
  0
LINE
  5
17E
330
1F
100
AcDbEntity
  8
0
  6
Continuous
 62
     7
370
    25
100
AcDbLine
 10
35.6875
 20
12.5
 30
0.0
 11
12.3125
 21
12.5
 31
0.0
  0
LINE
  5
17F
330
1F
100
AcDbEntity
  8
0
  6
Continuous
 62
     7
370
    25
100
AcDbLine
 10
35.6875
 20
12.25
 30
0.0
 11
12.3125
 21
12.25
 31
0.0
  0
LINE
  5
180
330
1F
100
AcDbEntity
  8
0
  6
Continuous
 62
     7
370
    25
100
AcDbLine
 10
35.6875
 20
12.0
 30
0.0
 11
12.3125
 21
12.0
 31
0.0
  0
LINE
  5
181
330
1F
100
AcDbEntity
  8
0
  6
Continuous
 62
     7
370
    25
100
AcDbLine
 10
35.6875
 20
24.191
 30
0.0
 11
35.6875
 21
0.25
 31
0.0
  0
LINE
  5
182
330
1F
100
AcDbEntity
  8
0
  6
Continuous
 62
     7
370
    25
100
AcDbLine
 10
35.6875
 20
0.5
 30
0.0
 11
12.3125
 21
0.5
 31
0.0
  0
LINE
  5
183
330
1F
100
AcDbEntity
  8
0
  6
Continuous
 62
     7
370
    25
100
AcDbLine
 10
12.3125
 20
24.191
 30
0.0
 11
12.3125
 21
0.25
 31
0.0
  0
LINE
  5
184
330
1F
100
AcDbEntity
  8
0
  6
Continuous
 62
     7
370
    25
100
AcDbLine
 10
11.6875
 20
24.0
 30
0.0
 11
-11.6875
 21
24.0
 31
0.0
  0
LINE
  5
185
330
1F
100
AcDbEntity
  8
0
  6
Continuous
 62
     7
370
    25
100
AcDbLine
 10
11.6875
 20
12.5
 30
0.0
 11
-11.6875
 21
12.5
 31
0.0
  0
LINE
  5
186
330
1F
100
AcDbEntity
  8
0
  6
Continuous
 62
     7
370
    25
100
AcDbLine
 10
11.6875
 20
12.25
 30
0.0
 11
-11.6875
 21
12.25
 31
0.0
  0
LINE
  5
187
330
1F
100
AcDbEntity
  8
0
  6
Continuous
 62
     7
370
    25
100
AcDbLine
 10
11.6875
 20
12.0
 30
0.0
 11
-11.6875
 21
12.0
 31
0.0
  0
LINE
  5
188
330
1F
100
AcDbEntity
  8
0
  6
Continuous
 62
     7
370
    25
100
AcDbLine
 10
-11.6875
 20
24.191
 30
0.0
 11
-11.6875
 21
0.25
 31
0.0
  0
LINE
  5
189
330
1F
100
AcDbEntity
  8
0
  6
Continuous
 62
     7
370
    25
100
AcDbLine
 10
11.6875
 20
24.191
 30
0.0
 11
11.6875
 21
0.25
 31
0.0
  0
LINE
  5
18A
330
1F
100
AcDbEntity
  8
0
  6
Continuous
 62
     7
370
    25
100
AcDbLine
 10
11.6875
 20
0.5
 30
0.0
 11
-11.6875
 21
0.5
 31
0.0
  0
LINE
  5
18B
330
1F
100
AcDbEntity
  8
0
  6
Continuous
 62
     7
370
    25
100
AcDbLine
 10
-12.3125
 20
24.0
 30
0.0
 11
-35.6875
 21
24.0
 31
0.0
  0
LINE
  5
18C
330
1F
100
AcDbEntity
  8
0
  6
Continuous
 62
     7
370
    25
100
AcDbLine
 10
-12.3125
 20
12.5
 30
0.0
 11
-35.6875
 21
12.5
 31
0.0
  0
LINE
  5
18D
330
1F
100
AcDbEntity
  8
0
  6
Continuous
 62
     7
370
    25
100
AcDbLine
 10
-12.3125
 20
12.25
 30
0.0
 11
-35.6875
 21
12.25
 31
0.0
  0
LINE
  5
18E
330
1F
100
AcDbEntity
  8
0
  6
Continuous
 62
     7
370
    25
100
AcDbLine
 10
12.125
 20
24.191
 30
0.0
 11
12.125
 21
0.25
 31
0.0
  0
LINE
  5
18F
330
1F
100
AcDbEntity
  8
0
  6
Continuous
 62
     7
370
    25
100
AcDbLine
 10
11.875
 20
24.191
 30
0.0
 11
11.875
 21
0.25
 31
0.0
  0
LINE
  5
190
330
1F
100
AcDbEntity
  8
0
  6
Continuous
 62
     7
370
    25
100
AcDbLine
 10
12.3125
 20
23.191
 30
0.0
 11
12.125
 21
23.191
 31
0.0
  0
LINE
  5
191
330
1F
100
AcDbEntity
  8
0
  6
Continuous
 62
     7
370
    25
100
AcDbLine
 10
11.875
 20
23.191
 30
0.0
 11
11.6875
 21
23.191
 31
0.0
  0
LINE
  5
192
330
1F
100
AcDbEntity
  8
0
  6
Continuous
 62
     7
370
    25
100
AcDbLine
 10
11.6875
 20
1.25
 30
0.0
 11
11.875
 21
1.25
 31
0.0
  0
LINE
  5
193
330
1F
100
AcDbEntity
  8
0
  6
Continuous
 62
     7
370
    25
100
AcDbLine
 10
12.125
 20
1.25
 30
0.0
 11
12.3125
 21
1.25
 31
0.0
  0
LINE
  5
194
330
1F
100
AcDbEntity
  8
0
  6
Continuous
 62
     7
370
    25
100
AcDbLine
 10
33.9771823075
 20
-3.0
 30
0.0
 11
34.0018782195
 21
-3.0003690585
 31
0.0
  0
LINE
  5
195
330
1F
100
AcDbEntity
  8
0
  6
Continuous
 62
     7
370
    25
100
AcDbLine
 10
35.1217156184
 20
-6.0
 30
0.0
 11
35.7333217598
 21
-6.0
 31
0.0
  0
LINE
  5
196
330
1F
100
AcDbEntity
  8
0
  6
Continuous
 62
     7
370
    25
100
AcDbLine
 10
34.7815289728
 20
-3.0
 30
0.0
 11
34.7676344768
 21
-3.0001168163
 31
0.0
  0
LINE
  5
197
330
1F
100
AcDbEntity
  8
0
  6
Continuous
 62
     7
370
    25
100
AcDbLine
 10
34.7815289728
 20
-7.0
 30
0.0
 11
34.8123830533
 21
-6.9994239068
 31
0.0
  0
LINE
  5
198
330
1F
100
AcDbEntity
  8
0
  6
Continuous
 62
     7
370
    25
100
AcDbLine
 10
-33.9771823075
 20
-3.0
 30
0.0
 11
-33.9910768034
 21
-3.0001168163
 31
0.0
  0
LINE
  5
199
330
1F
100
AcDbEntity
  8
0
  6
Continuous
 62
     7
370
    25
100
AcDbLine
 10
-35.1220202265
 20
-6.0
 30
0.0
 11
-35.7333217598
 21
-6.0
 31
0.0
  0
LINE
  5
19A
330
1F
100
AcDbEntity
  8
0
  6
Continuous
 62
     7
370
    25
100
AcDbLine
 10
-34.7815289728
 20
-3.0
 30
0.0
 11
-34.7568330607
 21
-3.0003690585
 31
0.0
  0
LINE
  5
19B
330
1F
100
AcDbEntity
  8
0
  6
Continuous
 62
     7
370
    25
100
AcDbLine
 10
-12.3125
 20
12.0
 30
0.0
 11
-35.6875
 21
12.0
 31
0.0
  0
LINE
  5
19C
330
1F
100
AcDbEntity
  8
0
  6
Continuous
 62
     7
370
    25
100
AcDbLine
 10
-35.6875
 20
24.191
 30
0.0
 11
-35.6875
 21
0.25
 31
0.0
  0
LINE
  5
19D
330
1F
100
AcDbEntity
  8
0
  6
Continuous
 62
     7
370
    25
100
AcDbLine
 10
-12.3125
 20
24.191
 30
0.0
 11
-12.3125
 21
0.25
 31
0.0
  0
LINE
  5
19E
330
1F
100
AcDbEntity
  8
0
  6
Continuous
 62
     7
370
    25
100
AcDbLine
 10
-12.3125
 20
0.5
 30
0.0
 11
-35.6875
 21
0.5
 31
0.0
  0
LINE
  5
19F
330
1F
100
AcDbEntity
  8
0
  6
Continuous
 62
     7
370
    25
100
AcDbLine
 10
-35.875
 20
0.25
 30
0.0
 11
35.875
 21
0.25
 31
0.0
  0
LINE
  5
1A0
330
1F
100
AcDbEntity
  8
0
  6
Continuous
 62
     7
370
    25
100
AcDbLine
 10
-12.125
 20
24.191
 30
0.0
 11
-12.125
 21
0.25
 31
0.0
  0
LINE
  5
1A1
330
1F
100
AcDbEntity
  8
0
  6
Continuous
 62
     7
370
    25
100
AcDbLine
 10
35.875
 20
24.191
 30
0.0
 11
-35.875
 21
24.191
 31
0.0
  0
LINE
  5
1A2
330
1F
100
AcDbEntity
  8
0
  6
Continuous
 62
     7
370
    25
100
AcDbLine
 10
-11.875
 20
24.191
 30
0.0
 11
-11.875
 21
0.25
 31
0.0
  0
LINE
  5
1A3
330
1F
100
AcDbEntity
  8
0
  6
Continuous
 62
     7
370
    25
100
AcDbLine
 10
-11.6875
 20
23.191
 30
0.0
 11
-11.875
 21
23.191
 31
0.0
  0
LINE
  5
1A4
330
1F
100
AcDbEntity
  8
0
  6
Continuous
 62
     7
370
    25
100
AcDbLine
 10
-12.125
 20
23.191
 30
0.0
 11
-12.3125
 21
23.191
 31
0.0
  0
LINE
  5
1A5
330
1F
100
AcDbEntity
  8
0
  6
Continuous
 62
     7
370
    25
100
AcDbLine
 10
-12.3125
 20
1.25
 30
0.0
 11
-12.125
 21
1.25
 31
0.0
  0
LINE
  5
1A6
330
1F
100
AcDbEntity
  8
0
  6
Continuous
 62
     7
370
    25
100
AcDbLine
 10
-11.875
 20
1.25
 30
0.0
 11
-11.6875
 21
1.25
 31
0.0
  0
LINE
  5
1A7
330
1F
100
AcDbEntity
  8
0
  6
Continuous
 62
     7
370
    25
100
AcDbLine
 10
30.875
 20
-3.0
 30
0.0
 11
30.875
 21
0.0
 31
0.0
  0
LINE
  5
1A8
330
1F
100
AcDbEntity
  8
0
  6
Continuous
 62
     7
370
    25
100
AcDbLine
 10
-30.875
 20
-3.0
 30
0.0
 11
-30.875
 21
-0.125
 31
0.0
  0
LINE
  5
1A9
330
1F
100
AcDbEntity
  8
0
  6
Continuous
 62
     7
370
    25
100
AcDbLine
 10
-31.2104219012
 20
-0.125
 30
0.0
 11
31.2104219012
 21
-0.125
 31
0.0
  0
LINE
  5
1AA
330
1F
100
AcDbEntity
  8
0
  6
Continuous
 62
     7
370
    25
100
AcDbLine
 10
-30.875
 20
-0.75
 30
0.0
 11
30.875
 21
-0.75
 31
0.0
  0
LINE
  5
1AB
330
1F
100
AcDbEntity
  8
0
  6
Continuous
 62
     7
370
    25
100
AcDbLine
 10
36.375
 20
-3.0
 30
0.0
 11
36.375
 21
24.441
 31
0.0
  0
LINE
  5
1AC
330
1F
100
AcDbEntity
  8
0
  6
Continuous
 62
     7
370
    25
100
AcDbLine
 10
34.375
 20
-3.0
 30
0.0
 11
34.375
 21
0.0
 31
0.0
  0
LINE
  5
1AD
330
1F
100
AcDbEntity
  8
0
  6
Continuous
 62
     7
370
    25
100
AcDbLine
 10
36.375
 20
-3.0
 30
0.0
 11
30.875
 21
-3.0
 31
0.0
  0
LINE
  5
1AE
330
1F
100
AcDbEntity
  8
0
  6
Continuous
 62
     7
370
    25
100
AcDbLine
 10
-34.375
 20
-3.0
 30
0.0
 11
-34.375
 21
0.0
 31
0.0
  0
LINE
  5
1AF
330
1F
100
AcDbEntity
  8
0
  6
Continuous
 62
     7
370
    25
100
AcDbLine
 10
-36.375
 20
24.441
 30
0.0
 11
-36.375
 21
-3.0
 31
0.0
  0
LINE
  5
1B0
330
1F
100
AcDbEntity
  8
0
  6
Continuous
 62
     7
370
    25
100
AcDbLine
 10
-36.375
 20
0.0
 30
0.0
 11
36.375
 21
0.0
 31
0.0
  0
LINE
  5
1B1
330
1F
100
AcDbEntity
  8
0
  6
Continuous
 62
     7
370
    25
100
AcDbLine
 10
-36.375
 20
-3.0
 30
0.0
 11
-30.875
 21
-3.0
 31
0.0
  0
LINE
  5
1B2
330
1F
100
AcDbEntity
  8
0
  6
Continuous
 62
     7
370
    25
100
AcDbLine
 10
30.875
 20
-2.0
 30
0.0
 11
-30.875
 21
-2.0
 31
0.0
  0
LINE
  5
1B3
330
1F
100
AcDbEntity
  8
0
  6
Continuous
 62
     7
370
    25
100
AcDbLine
 10
-35.875
 20
24.191
 30
0.0
 11
-35.875
 21
0.25
 31
0.0
  0
LINE
  5
1B4
330
1F
100
AcDbEntity
  8
0
  6
Continuous
 62
     7
370
    25
100
AcDbLine
 10
35.875
 20
0.25
 30
0.0
 11
35.875
 21
24.191
 31
0.0
  0
LINE
  5
1B5
330
1F
100
AcDbEntity
  8
0
  6
Continuous
 62
     7
370
    25
100
AcDbLine
 10
36.375
 20
24.441
 30
0.0
 11
-36.375
 21
24.441
 31
0.0
  0
ARC
  5
1B6
330
1F
100
AcDbEntity
  8
0
  6
Continuous
 62
     7
370
    25
100
AcDbCircle
 10
31.625
 20
-0.75
 30
0.0
 40
0.7500000000000037
100
AcDbArc
 50
90.0
 51
180.0
  0
ARC
  5
1B7
330
1F
100
AcDbEntity
  8
0
  6
Continuous
 62
     7
370
    25
100
AcDbCircle
 10
-31.625
 20
-0.75
 30
0.0
 40
0.7500000000000037
100
AcDbArc
 50
0.0
 51
90.0
  0
SPLINE
  5
1BA
330
1B
100
AcDbEntity
 67
     1
  8
0
  6
Continuous
 62
     7
370
    25
100
AcDbSpline
210
0.0
220
0.0
230
1.0
 70
     8
 71
     3
 72
    15
 73
    11
 74
     0
 42
0.00000001
 43
0.00000001
 40
0.0
 40
0.0
 40
0.0
 40
0.0
 40
0.0201910045973033
 40
0.0769272333174417
 40
0.2039978704682979
 40
0.2957706179129626
 40
0.4127538118935185
 40
0.6408456165993268
 40
0.9548947999240327
 40
1.0
 40
1.0
 40
1.0
 40
1.0
 10
36.47606644234248
 20
-12.29361166273615
 30
0.0
 10
36.47704109316637
 20
-12.28984255510335
 30
0.0
 10
36.48075448894971
 20
-12.27548234727565
 30
0.0
 10
36.47271454180115
 20
-12.23589367313181
 30
0.0
 10
36.45366498318254
 20
-12.18702726445326
 30
0.0
 10
36.42474723774338
 20
-12.12934225225467
 30
0.0
 10
36.38346504612259
 20
-12.05650671657981
 30
0.0
 10
36.31459193454866
 20
-11.95052232379927
 30
0.0
 10
36.25000719943889
 20
-11.85819006131303
 30
0.0
 10
36.20691351242029
 20
-11.80450475903961
 30
0.0
 10
36.2015014961264
 20
-11.7977625712449
 30
0.0
  0
SPLINE
  5
1BB
330
1B
100
AcDbEntity
 67
     1
  8
0
  6
Continuous
 62
     7
370
    25
100
AcDbSpline
210
0.0
220
0.0
230
1.0
 70
     8
 71
     3
 72
    10
 73
     6
 74
     0
 42
0.00000001
 43
0.00000001
 40
0.0
 40
0.0
 40
0.0
 40
0.0
 40
0.4375088723177493
 40
0.892492142806269
 40
1.0
 40
1.0
 40
1.0
 40
1.0
 10
36.46927752478322
 20
-12.30410633844053
 30
0.0
 10
36.47057221488939
 20
-12.30279355072222
 30
0.0
 10
36.47321330589406
 20
-12.30011554166254
 30
0.0
 10
36.47553139020614
 20
-12.29639838621007
 30
0.0
 10
36.47598058802037
 20
-12.29405881963643
 30
0.0
 10
36.47606644234249
 20
-12.29361166273615
 30
0.0
  0
SPLINE
  5
1BC
330
1B
100
AcDbEntity
 67
     1
  8
0
  6
Continuous
 62
     7
370
    25
100
AcDbSpline
210
0.0
220
0.0
230
1.0
 70
     8
 71
     3
 72
    16
 73
    12
 74
     0
 42
0.00000001
 43
0.00000001
 40
0.0
 40
0.0
 40
0.0
 40
0.0
 40
0.2787621485574827
 40
0.5912236956428535
 40
0.7356822889781424
 40
0.8552953573397027
 40
0.9028695223539478
 40
0.9418360783488743
 40
0.9732461239935271
 40
0.9869743719634351
 40
0.9999999999999999
 40
0.9999999999999999
 40
0.9999999999999999
 40
0.9999999999999999
 10
34.44343483400022
 20
-13.35128654843356
 30
0.0
 10
34.47625615483586
 20
-13.38872856756563
 30
0.0
 10
34.54586654742586
 20
-13.46813895035303
 30
0.0
 10
34.64271690599259
 20
-13.55762233288178
 30
0.0
 10
34.72560455529185
 20
-13.61878452439601
 30
0.0
 10
34.7741857625884
 20
-13.64660086378228
 30
0.0
 10
34.80891441500521
 20
-13.65912494838653
 30
0.0
 10
34.82976376350454
 20
-13.66298721419981
 30
0.0
 10
34.84499115644447
 20
-13.66184532940599
 30
0.0
 10
34.85482964970745
 20
-13.65817450962574
 30
0.0
 10
34.85869989330206
 20
-13.65534023750478
 30
0.0
 10
34.86058419423335
 20
-13.65396031878223
 30
0.0
  0
SPLINE
  5
1C4
330
1B
100
AcDbEntity
 67
     1
  8
0
  6
Continuous
 62
     7
370
    25
100
AcDbSpline
210
0.0
220
0.0
230
1.0
 70
     8
 71
     3
 72
    17
 73
    13
 74
     0
 42
0.00000001
 43
0.00000001
 40
0.0
 40
0.0
 40
0.0
 40
0.0
 40
0.2495948028744304
 40
0.4458583759184799
 40
0.5197232445207803
 40
0.6067990674599871
 40
0.7193334269599924
 40
0.8914945492780812
 40
0.9560257721076266
 40
0.9799283145450864
 40
0.990238262447102
 40
1.0
 40
1.0
 40
1.0
 40
1.0
 10
36.2017064152564
 20
11.79729764750287
 30
0.0
 10
36.23114380958354
 20
11.83636365803286
 30
0.0
 10
36.28372867383079
 20
11.90614839636846
 30
0.0
 10
36.34085605703908
 20
11.99051443337469
 30
0.0
 10
36.37829669845912
 20
12.04965536205326
 30
0.0
 10
36.40589285310143
 20
12.09560596892589
 30
0.0
 10
36.44085334627405
 20
12.15952545540561
 30
0.0
 10
36.46955786167872
 20
12.22185666959699
 30
0.0
 10
36.48029574944322
 20
12.2726852606584
 30
0.0
 10
36.47734014181846
 20
12.29212886142913
 30
0.0
 10
36.47345668413904
 20
12.29996892225418
 30
0.0
 10
36.47064497956077
 20
12.30275254236598
 30
0.0
 10
36.46927752478322
 20
12.30410633844053
 30
0.0
  0
SPLINE
  5
1C5
330
1B
100
AcDbEntity
 67
     1
  8
0
  6
Continuous
 62
     7
370
    25
100
AcDbSpline
210
0.0
220
0.0
230
1.0
 70
     8
 71
     3
 72
    16
 73
    12
 74
     0
 42
0.00000001
 43
0.00000001
 40
0.0
 40
0.0
 40
0.0
 40
0.0
 40
0.0161442534713525
 40
0.0346105818160179
 40
0.0568313743799266
 40
0.0842349629181826
 40
0.1594747670179801
 40
0.2682795429078088
 40
0.4696098668589242
 40
0.7236713992470983
 40
1.0
 40
1.0
 40
1.0
 40
1.0
 10
34.86058419423335
 20
13.65396031878223
 30
0.0
 10
34.85821543700758
 20
13.65563461190643
 30
0.0
 10
34.85313721732337
 20
13.65922401659844
 30
0.0
 10
34.8431820827025
 20
13.66198001341154
 30
0.0
 10
34.83098758246367
 20
13.66265583631882
 30
0.0
 10
34.8087764940726
 20
13.65960463263754
 30
0.0
 10
34.77314074671701
 20
13.64604832398047
 30
0.0
 10
34.71352896478722
 20
13.61138622549996
 30
0.0
 10
34.63378896676578
 20
13.54931503995218
 30
0.0
 10
34.53836299976788
 20
13.45976427682883
 30
0.0
 10
34.47595095903426
 20
13.38844385945276
 30
0.0
 10
34.44343483400021
 20
13.35128654843356
 30
0.0
  0
SPLINE
  5
1CD
330
1B
100
AcDbEntity
 67
     1
  8
0
  6
Continuous
 62
     7
370
    25
100
AcDbSpline
210
0.0
220
0.0
230
1.0
 70
     8
 71
     3
 72
    16
 73
    12
 74
     0
 42
0.00000001
 43
0.00000001
 40
0.0
 40
0.0
 40
0.0
 40
0.0
 40
0.2787621485574827
 40
0.5912236956428535
 40
0.7356822889781424
 40
0.8552953573397027
 40
0.9028695223539478
 40
0.9418360783488743
 40
0.9732461239935271
 40
0.9869743719634351
 40
0.9999999999999999
 40
0.9999999999999999
 40
0.9999999999999999
 40
0.9999999999999999
 10
-34.44343483400022
 20
13.35128654843356
 30
0.0
 10
-34.47625615483586
 20
13.38872856756563
 30
0.0
 10
-34.54586654742586
 20
13.46813895035303
 30
0.0
 10
-34.64271690599259
 20
13.55762233288178
 30
0.0
 10
-34.72560455529185
 20
13.61878452439601
 30
0.0
 10
-34.7741857625884
 20
13.64660086378228
 30
0.0
 10
-34.80891441500521
 20
13.65912494838653
 30
0.0
 10
-34.82976376350454
 20
13.66298721419981
 30
0.0
 10
-34.84499115644447
 20
13.66184532940599
 30
0.0
 10
-34.85482964970745
 20
13.65817450962574
 30
0.0
 10
-34.85869989330206
 20
13.65534023750478
 30
0.0
 10
-34.86058419423335
 20
13.65396031878223
 30
0.0
  0
SPLINE
  5
1CE
330
1B
100
AcDbEntity
 67
     1
  8
0
  6
Continuous
 62
     7
370
    25
100
AcDbSpline
210
0.0
220
0.0
230
1.0
 70
     8
 71
     3
 72
    15
 73
    11
 74
     0
 42
0.00000001
 43
0.00000001
 40
0.0
 40
0.0
 40
0.0
 40
0.0
 40
0.0201910045973035
 40
0.0769272333174425
 40
0.2039978704683001
 40
0.2957706179129657
 40
0.4127538118935228
 40
0.6408456165993336
 40
0.9548947999240428
 40
0.9999999999999999
 40
0.9999999999999999
 40
0.9999999999999999
 40
0.9999999999999999
 10
-36.47606644234248
 20
12.29361166273615
 30
0.0
 10
-36.47704109316638
 20
12.28984255510335
 30
0.0
 10
-36.48075448894973
 20
12.27548234727565
 30
0.0
 10
-36.47271454180117
 20
12.23589367313181
 30
0.0
 10
-36.45366498318253
 20
12.18702726445326
 30
0.0
 10
-36.42474723774338
 20
12.12934225225467
 30
0.0
 10
-36.38346504612261
 20
12.05650671657981
 30
0.0
 10
-36.3145919345486
 20
11.95052232379926
 30
0.0
 10
-36.25000719943893
 20
11.85819006131304
 30
0.0
 10
-36.20691351242029
 20
11.80450475903962
 30
0.0
 10
-36.2015014961264
 20
11.79776257124491
 30
0.0
  0
SPLINE
  5
1CF
330
1B
100
AcDbEntity
 67
     1
  8
0
  6
Continuous
 62
     7
370
    25
100
AcDbSpline
210
0.0
220
0.0
230
1.0
 70
     8
 71
     3
 72
    10
 73
     6
 74
     0
 42
0.00000001
 43
0.00000001
 40
0.0
 40
0.0
 40
0.0
 40
0.0
 40
0.4375088723177493
 40
0.892492142806269
 40
1.0
 40
1.0
 40
1.0
 40
1.0
 10
-36.46927752478322
 20
12.30410633844053
 30
0.0
 10
-36.47057221488939
 20
12.30279355072222
 30
0.0
 10
-36.47321330589406
 20
12.30011554166254
 30
0.0
 10
-36.47553139020614
 20
12.29639838621007
 30
0.0
 10
-36.47598058802037
 20
12.29405881963643
 30
0.0
 10
-36.47606644234249
 20
12.29361166273615
 30
0.0
  0
SPLINE
  5
1D7
330
1B
100
AcDbEntity
 67
     1
  8
0
  6
Continuous
 62
     7
370
    25
100
AcDbSpline
210
0.0
220
0.0
230
1.0
 70
     8
 71
     3
 72
    17
 73
    13
 74
     0
 42
0.00000001
 43
0.00000001
 40
0.0
 40
0.0
 40
0.0
 40
0.0
 40
0.2495948028744382
 40
0.4458583759184857
 40
0.5197232445207853
 40
0.6067990674599911
 40
0.7193334269599952
 40
0.8914945492780824
 40
0.9560257721076271
 40
0.9799283145450867
 40
0.990238262447102
 40
1.0
 40
1.0
 40
1.0
 40
1.0
 10
-36.20170641525639
 20
-11.79729764750287
 30
0.0
 10
-36.23114380958354
 20
-11.83636365803286
 30
0.0
 10
-36.28372867383079
 20
-11.90614839636845
 30
0.0
 10
-36.34085605703908
 20
-11.99051443337469
 30
0.0
 10
-36.37829669845911
 20
-12.04965536205325
 30
0.0
 10
-36.40589285310143
 20
-12.0956059689259
 30
0.0
 10
-36.44085334627404
 20
-12.1595254554056
 30
0.0
 10
-36.4695578616787
 20
-12.221856669597
 30
0.0
 10
-36.48029574944322
 20
-12.27268526065839
 30
0.0
 10
-36.47734014181846
 20
-12.29212886142913
 30
0.0
 10
-36.47345668413904
 20
-12.29996892225418
 30
0.0
 10
-36.4706449795608
 20
-12.30275254236598
 30
0.0
 10
-36.46927752478322
 20
-12.30410633844053
 30
0.0
  0
SPLINE
  5
1D8
330
1B
100
AcDbEntity
 67
     1
  8
0
  6
Continuous
 62
     7
370
    25
100
AcDbSpline
210
0.0
220
0.0
230
1.0
 70
     8
 71
     3
 72
    16
 73
    12
 74
     0
 42
0.00000001
 43
0.00000001
 40
0.0
 40
0.0
 40
0.0
 40
0.0
 40
0.0161442534713525
 40
0.0346105818160179
 40
0.0568313743799266
 40
0.0842349629181826
 40
0.1594747670179801
 40
0.2682795429078088
 40
0.4696098668589242
 40
0.7236713992470983
 40
1.0
 40
1.0
 40
1.0
 40
1.0
 10
-34.86058419423335
 20
-13.65396031878223
 30
0.0
 10
-34.85821543700758
 20
-13.65563461190643
 30
0.0
 10
-34.85313721732337
 20
-13.65922401659844
 30
0.0
 10
-34.8431820827025
 20
-13.66198001341154
 30
0.0
 10
-34.83098758246367
 20
-13.66265583631882
 30
0.0
 10
-34.8087764940726
 20
-13.65960463263754
 30
0.0
 10
-34.77314074671701
 20
-13.64604832398047
 30
0.0
 10
-34.71352896478722
 20
-13.61138622549996
 30
0.0
 10
-34.63378896676578
 20
-13.54931503995218
 30
0.0
 10
-34.53836299976788
 20
-13.45976427682883
 30
0.0
 10
-34.47595095903426
 20
-13.38844385945276
 30
0.0
 10
-34.44343483400021
 20
-13.35128654843356
 30
0.0
  0
SPLINE
  5
1F0
330
1B
100
AcDbEntity
 67
     1
  8
0
  6
Continuous
 62
     7
370
    25
100
AcDbSpline
210
0.0
220
0.0
230
1.0
 70
    24
 71
     3
 72
    14
 73
    10
 74
     0
 42
0.00000001
 43
0.00000001
 40
0.0
 40
0.0
 40
0.0
 40
0.0
 40
0.0212680965444832
 40
0.1843232045038335
 40
0.347562731598195
 40
0.5106340482721916
 40
0.6736891562054527
 40
0.8369286833107846
 40
1.0
 40
1.0
 40
1.0
 40
1.0
 10
34.14867042077208
 20
-13.00000000000001
 30
0.0
 10
34.15281657547382
 20
-13.00494119476126
 30
0.0
 10
34.18874985795613
 20
-13.04776481325325
 30
0.0
 10
34.24570707094006
 20
-13.11564377645101
 30
0.0
 10
34.31682503777157
 20
-13.20039886892044
 30
0.0
 10
34.37258361635318
 20
-13.26684935526304
 30
0.0
 10
34.41307079504665
 20
-13.31510009592498
 30
0.0
 10
34.4386672186663
 20
-13.34560472573127
 30
0.0
 10
34.44184617513042
 20
-13.34939325851809
 30
0.0
 10
34.4434348340002
 20
-13.35128654843356
 30
0.0
  0
SPLINE
  5
1F5
330
1B
100
AcDbEntity
 67
     1
  8
0
  6
Continuous
 62
     7
370
    25
100
AcDbSpline
210
0.0
220
0.0
230
1.0
 70
    24
 71
     3
 72
    14
 73
    10
 74
     0
 42
0.00000001
 43
0.00000001
 40
0.0
 40
0.0
 40
0.0
 40
0.0
 40
0.0212680965444832
 40
0.1843232045038335
 40
0.347562731598195
 40
0.5106340482721916
 40
0.6736891562054527
 40
0.8369286833107846
 40
1.0
 40
1.0
 40
1.0
 40
1.0
 10
34.14867042077208
 20
13.00000000000001
 30
0.0
 10
34.15281657547382
 20
13.00494119476126
 30
0.0
 10
34.18874985795613
 20
13.04776481325325
 30
0.0
 10
34.24570707094006
 20
13.11564377645101
 30
0.0
 10
34.31682503777157
 20
13.20039886892044
 30
0.0
 10
34.37258361635318
 20
13.26684935526304
 30
0.0
 10
34.41307079504665
 20
13.31510009592498
 30
0.0
 10
34.4386672186663
 20
13.34560472573127
 30
0.0
 10
34.44184617513042
 20
13.34939325851809
 30
0.0
 10
34.4434348340002
 20
13.35128654843356
 30
0.0
  0
SPLINE
  5
1FA
330
1B
100
AcDbEntity
 67
     1
  8
0
  6
Continuous
 62
     7
370
    25
100
AcDbSpline
210
0.0
220
0.0
230
1.0
 70
    24
 71
     3
 72
    14
 73
    10
 74
     0
 42
0.00000001
 43
0.00000001
 40
0.0
 40
0.0
 40
0.0
 40
0.0
 40
0.0212680965444721
 40
0.1843232045038243
 40
0.3475627315981876
 40
0.510634048272186
 40
0.6736891562054489
 40
0.8369286833107827
 40
1.0
 40
1.0
 40
1.0
 40
1.0
 10
-34.14867042077208
 20
13.00000000000001
 30
0.0
 10
-34.15281657547382
 20
13.00494119476127
 30
0.0
 10
-34.18874985795615
 20
13.04776481325326
 30
0.0
 10
-34.24570707094005
 20
13.11564377645101
 30
0.0
 10
-34.31682503777156
 20
13.20039886892044
 30
0.0
 10
-34.37258361635319
 20
13.26684935526304
 30
0.0
 10
-34.41307079504664
 20
13.31510009592498
 30
0.0
 10
-34.43866721866632
 20
13.34560472573127
 30
0.0
 10
-34.44184617513042
 20
13.34939325851808
 30
0.0
 10
-34.4434348340002
 20
13.35128654843356
 30
0.0
  0
SPLINE
  5
1FF
330
1B
100
AcDbEntity
 67
     1
  8
0
  6
Continuous
 62
     7
370
    25
100
AcDbSpline
210
0.0
220
0.0
230
1.0
 70
    24
 71
     3
 72
    14
 73
    10
 74
     0
 42
0.00000001
 43
0.00000001
 40
0.0
 40
0.0
 40
0.0
 40
0.0
 40
0.021268096544496
 40
0.1843232045038442
 40
0.3475627315982035
 40
0.5106340482721978
 40
0.6736891562054568
 40
0.8369286833107866
 40
0.9999999999999999
 40
0.9999999999999999
 40
0.9999999999999999
 40
0.9999999999999999
 10
-34.14867042077207
 20
-13.0
 30
0.0
 10
-34.15281657547381
 20
-13.00494119476125
 30
0.0
 10
-34.18874985795615
 20
-13.04776481325326
 30
0.0
 10
-34.24570707094004
 20
-13.115643776451
 30
0.0
 10
-34.31682503777158
 20
-13.20039886892045
 30
0.0
 10
-34.37258361635318
 20
-13.26684935526304
 30
0.0
 10
-34.41307079504665
 20
-13.31510009592498
 30
0.0
 10
-34.4386672186663
 20
-13.34560472573127
 30
0.0
 10
-34.44184617513042
 20
-13.34939325851808
 30
0.0
 10
-34.4434348340002
 20
-13.35128654843356
 30
0.0
  0
SPLINE
  5
236
330
1B
100
AcDbEntity
 67
     1
  8
0
  6
Continuous
 62
     7
370
    25
100
AcDbSpline
210
0.0
220
0.0
230
1.0
 70
    24
 71
     3
 72
    15
 73
    11
 74
     0
 42
0.00000001
 43
0.00000001
 40
0.0
 40
0.0
 40
0.0
 40
0.0
 40
0.1364748747341222
 40
0.2729497494682445
 40
0.4094246242023657
 40
0.5458994989364878
 40
0.6823743736706097
 40
0.8188492484047317
 40
0.9553241231388536
 40
1.0
 40
1.0
 40
1.0
 40
1.0
 10
34.86058419423335
 20
-13.65396031878224
 30
0.0
 10
34.85846175479058
 20
-13.65143089395125
 30
0.0
 10
34.85421687590505
 20
-13.6463720442893
 30
0.0
 10
34.82006382224975
 20
-13.60567001989753
 30
0.0
 10
34.76620352043572
 20
-13.54148181171243
 30
0.0
 10
34.691475741264
 20
-13.45242471241796
 30
0.0
 10
34.59799215438696
 20
-13.34101531190864
 30
0.0
 10
34.48610185726145
 20
-13.20766964833289
 30
0.0
 10
34.38973856453279
 20
-13.09282834802931
 30
0.0
 10
34.32725595752441
 20
-13.01836447665242
 30
0.0
 10
34.31184633193861
 20
-13.00000000000001
 30
0.0
  0
SPLINE
  5
238
330
1B
100
AcDbEntity
 67
     1
  8
0
  6
Continuous
 62
     7
370
    25
100
AcDbSpline
210
0.0
220
0.0
230
1.0
 70
    24
 71
     3
 72
    13
 73
     9
 74
     0
 42
0.00000001
 43
0.00000001
 40
0.0
 40
0.0
 40
0.0
 40
0.0
 40
0.0920690804766789
 40
0.2736552643813442
 40
0.4552414482860071
 40
0.6368276321906723
 40
0.8184138160953365
 40
1.0
 40
1.0
 40
1.0
 40
1.0
 10
36.1474003623274
 20
-11.92050807370976
 30
0.0
 10
36.16656083685644
 20
-11.94334263806556
 30
0.0
 10
36.22351116910448
 20
-12.0112134011216
 30
0.0
 10
36.29967354465899
 20
-12.1019801858092
 30
0.0
 10
36.3750295814735
 20
-12.19178601340655
 30
0.0
 10
36.42872175800284
 20
-12.2557738576796
 30
0.0
 10
36.46291905515412
 20
-12.29652860941664
 30
0.0
 10
36.46715803490685
 20
-12.3015804287659
 30
0.0
 10
36.46927752478322
 20
-12.30410633844053
 30
0.0
  0
SPLINE
  5
23A
330
1B
100
AcDbEntity
 67
     1
  8
0
  6
Continuous
 62
     7
370
    25
100
AcDbSpline
210
0.0
220
0.0
230
1.0
 70
    24
 71
     3
 72
    13
 73
     9
 74
     0
 42
0.00000001
 43
0.00000001
 40
0.0
 40
0.0
 40
0.0
 40
0.0
 40
0.0920690804766786
 40
0.2736552643813436
 40
0.4552414482860065
 40
0.6368276321906717
 40
0.8184138160953374
 40
0.9999999999999999
 40
0.9999999999999999
 40
0.9999999999999999
 40
0.9999999999999999
 10
36.14740036232739
 20
11.92050807370975
 30
0.0
 10
36.16656083685643
 20
11.94334263806556
 30
0.0
 10
36.22351116910448
 20
12.0112134011216
 30
0.0
 10
36.29967354465899
 20
12.1019801858092
 30
0.0
 10
36.37502958147351
 20
12.19178601340654
 30
0.0
 10
36.42872175800283
 20
12.2557738576796
 30
0.0
 10
36.46291905515412
 20
12.29652860941664
 30
0.0
 10
36.46715803490685
 20
12.3015804287659
 30
0.0
 10
36.46927752478322
 20
12.30410633844053
 30
0.0
  0
SPLINE
  5
23C
330
1B
100
AcDbEntity
 67
     1
  8
0
  6
Continuous
 62
     7
370
    25
100
AcDbSpline
210
0.0
220
0.0
230
1.0
 70
    24
 71
     3
 72
    15
 73
    11
 74
     0
 42
0.00000001
 43
0.00000001
 40
0.0
 40
0.0
 40
0.0
 40
0.0
 40
0.1364748747341213
 40
0.2729497494682434
 40
0.4094246242023649
 40
0.5458994989364868
 40
0.6823743736706099
 40
0.8188492484047292
 40
0.9553241231388537
 40
1.0
 40
1.0
 40
1.0
 40
1.0
 10
34.86058419423335
 20
13.65396031878223
 30
0.0
 10
34.85846175479058
 20
13.65143089395125
 30
0.0
 10
34.85421687590505
 20
13.64637204428929
 30
0.0
 10
34.82006382224976
 20
13.60567001989753
 30
0.0
 10
34.7662035204357
 20
13.54148181171243
 30
0.0
 10
34.69147574126401
 20
13.45242471241796
 30
0.0
 10
34.59799215438694
 20
13.34101531190864
 30
0.0
 10
34.48610185726146
 20
13.20766964833289
 30
0.0
 10
34.38973856453278
 20
13.09282834802931
 30
0.0
 10
34.32725595752442
 20
13.01836447665242
 30
0.0
 10
34.31184633193861
 20
13.00000000000001
 30
0.0
  0
SPLINE
  5
23E
330
1B
100
AcDbEntity
 67
     1
  8
0
  6
Continuous
 62
     7
370
    25
100
AcDbSpline
210
0.0
220
0.0
230
1.0
 70
    24
 71
     3
 72
    13
 73
     9
 74
     0
 42
0.00000001
 43
0.00000001
 40
0.0
 40
0.0
 40
0.0
 40
0.0
 40
0.0920690804766751
 40
0.2736552643813412
 40
0.4552414482860048
 40
0.6368276321906708
 40
0.8184138160953357
 40
1.0
 40
1.0
 40
1.0
 40
1.0
 10
-36.1474003623274
 20
11.92050807370976
 30
0.0
 10
-36.16656083685645
 20
11.94334263806556
 30
0.0
 10
-36.22351116910448
 20
12.0112134011216
 30
0.0
 10
-36.29967354465901
 20
12.10198018580921
 30
0.0
 10
-36.37502958147348
 20
12.19178601340654
 30
0.0
 10
-36.42872175800286
 20
12.25577385767961
 30
0.0
 10
-36.4629190551541
 20
12.29652860941664
 30
0.0
 10
-36.46715803490686
 20
12.3015804287659
 30
0.0
 10
-36.46927752478322
 20
12.30410633844053
 30
0.0
  0
SPLINE
  5
240
330
1B
100
AcDbEntity
 67
     1
  8
0
  6
Continuous
 62
     7
370
    25
100
AcDbSpline
210
0.0
220
0.0
230
1.0
 70
    24
 71
     3
 72
    15
 73
    11
 74
     0
 42
0.00000001
 43
0.00000001
 40
0.0
 40
0.0
 40
0.0
 40
0.0
 40
0.1364748747341232
 40
0.2729497494682466
 40
0.4094246242023688
 40
0.5458994989364919
 40
0.6823743736706149
 40
0.8188492484047379
 40
0.9553241231388608
 40
1.0
 40
1.0
 40
1.0
 40
1.0
 10
-34.86058419423335
 20
13.65396031878223
 30
0.0
 10
-34.85846175479058
 20
13.65143089395126
 30
0.0
 10
-34.85421687590505
 20
13.6463720442893
 30
0.0
 10
-34.82006382224974
 20
13.60567001989752
 30
0.0
 10
-34.76620352043571
 20
13.54148181171244
 30
0.0
 10
-34.691475741264
 20
13.45242471241796
 30
0.0
 10
-34.59799215438694
 20
13.34101531190864
 30
0.0
 10
-34.48610185726144
 20
13.20766964833289
 30
0.0
 10
-34.38973856453281
 20
13.09282834802931
 30
0.0
 10
-34.32725595752441
 20
13.01836447665242
 30
0.0
 10
-34.31184633193862
 20
13.00000000000001
 30
0.0
  0
SPLINE
  5
242
330
1B
100
AcDbEntity
 67
     1
  8
0
  6
Continuous
 62
     7
370
    25
100
AcDbSpline
210
0.0
220
0.0
230
1.0
 70
    24
 71
     3
 72
    15
 73
    11
 74
     0
 42
0.00000001
 43
0.00000001
 40
0.0
 40
0.0
 40
0.0
 40
0.0
 40
0.1364748747341205
 40
0.2729497494682416
 40
0.4094246242023623
 40
0.5458994989364834
 40
0.6823743736706055
 40
0.8188492484047238
 40
0.9553241231388476
 40
1.0
 40
1.0
 40
1.0
 40
1.0
 10
-34.86058419423335
 20
-13.65396031878223
 30
0.0
 10
-34.85846175479058
 20
-13.65143089395125
 30
0.0
 10
-34.85421687590505
 20
-13.64637204428929
 30
0.0
 10
-34.82006382224976
 20
-13.60567001989753
 30
0.0
 10
-34.76620352043571
 20
-13.54148181171244
 30
0.0
 10
-34.691475741264
 20
-13.45242471241796
 30
0.0
 10
-34.59799215438694
 20
-13.34101531190864
 30
0.0
 10
-34.48610185726146
 20
-13.20766964833289
 30
0.0
 10
-34.38973856453281
 20
-13.09282834802931
 30
0.0
 10
-34.32725595752441
 20
-13.01836447665241
 30
0.0
 10
-34.3118463319386
 20
-13.0
 30
0.0
  0
SPLINE
  5
244
330
1B
100
AcDbEntity
 67
     1
  8
0
  6
Continuous
 62
     7
370
    25
100
AcDbSpline
210
0.0
220
0.0
230
1.0
 70
    24
 71
     3
 72
    13
 73
     9
 74
     0
 42
0.00000001
 43
0.00000001
 40
0.0
 40
0.0
 40
0.0
 40
0.0
 40
0.0920690804766818
 40
0.2736552643813462
 40
0.4552414482860085
 40
0.6368276321906732
 40
0.8184138160953381
 40
1.0
 40
1.0
 40
1.0
 40
1.0
 10
-36.14740036232739
 20
-11.92050807370975
 30
0.0
 10
-36.16656083685643
 20
-11.94334263806556
 30
0.0
 10
-36.22351116910448
 20
-12.01121340112159
 30
0.0
 10
-36.299673544659
 20
-12.1019801858092
 30
0.0
 10
-36.37502958147348
 20
-12.19178601340654
 30
0.0
 10
-36.42872175800284
 20
-12.2557738576796
 30
0.0
 10
-36.46291905515411
 20
-12.29652860941664
 30
0.0
 10
-36.46715803490685
 20
-12.3015804287659
 30
0.0
 10
-36.46927752478322
 20
-12.30410633844053
 30
0.0
  0
LINE
  5
246
330
1B
100
AcDbEntity
 67
     1
  8
0
  6
Continuous
 62
     7
370
    25
100
AcDbLine
 10
34.8605841942
 20
-13.6539603188
 30
0.0
 11
35.2627575269
 21
-13.3164968237
 31
0.0
  0
LINE
  5
247
330
1B
100
AcDbEntity
 67
     1
  8
0
  6
Continuous
 62
     7
370
    25
100
AcDbLine
 10
36.0671041921
 20
-12.6415698335
 30
0.0
 11
36.4692775248
 21
-12.3041063384
 31
0.0
  0
LINE
  5
248
330
1B
100
AcDbEntity
 67
     1
  8
0
  6
Continuous
 62
     7
370
    25
100
AcDbLine
 10
35.3374899677
 20
-13.1722009045
 30
0.0
 11
35.9120233001
 21
-12.6901101973
 31
0.0
  0
LINE
  5
249
330
1B
100
AcDbEntity
 67
     1
  8
0
  6
Continuous
 62
     7
370
    25
100
AcDbLine
 10
35.1384908432
 20
-13.0128291743
 30
0.0
 11
35.1767930653
 21
-12.9806897938
 31
0.0
  0
LINE
  5
24A
330
1B
100
AcDbEntity
 67
     1
  8
0
  6
Continuous
 62
     7
370
    25
100
AcDbLine
 10
35.7513263977
 20
-12.4985990865
 30
0.0
 11
35.7896286198
 21
-12.466459706
 31
0.0
  0
LINE
  5
24B
330
1B
100
AcDbEntity
 67
     1
  8
0
  6
Continuous
 62
     7
370
    25
100
AcDbLine
 10
36.4692775248
 20
12.3041063384
 30
0.0
 11
36.0671041921
 21
12.6415698335
 31
0.0
  0
LINE
  5
24C
330
1B
100
AcDbEntity
 67
     1
  8
0
  6
Continuous
 62
     7
370
    25
100
AcDbLine
 10
35.2627575269
 20
13.3164968237
 30
0.0
 11
34.8605841942
 21
13.6539603188
 31
0.0
  0
LINE
  5
24D
330
1B
100
AcDbEntity
 67
     1
  8
0
  6
Continuous
 62
     7
370
    25
100
AcDbLine
 10
35.9120233001
 20
12.6901101973
 30
0.0
 11
35.3374899677
 21
13.1722009045
 31
0.0
  0
LINE
  5
24E
330
1B
100
AcDbEntity
 67
     1
  8
0
  6
Continuous
 62
     7
370
    25
100
AcDbLine
 10
35.7896286198
 20
12.466459706
 30
0.0
 11
35.7513263977
 21
12.4985990865
 31
0.0
  0
LINE
  5
24F
330
1B
100
AcDbEntity
 67
     1
  8
0
  6
Continuous
 62
     7
370
    25
100
AcDbLine
 10
35.1767930653
 20
12.9806897938
 30
0.0
 11
35.1384908432
 21
13.0128291743
 31
0.0
  0
LINE
  5
250
330
1B
100
AcDbEntity
 67
     1
  8
0
  6
Continuous
 62
     7
370
    25
100
AcDbLine
 10
-36.0671041921
 20
12.6415698335
 30
0.0
 11
-36.4692775248
 21
12.3041063384
 31
0.0
  0
LINE
  5
251
330
1B
100
AcDbEntity
 67
     1
  8
0
  6
Continuous
 62
     7
370
    25
100
AcDbLine
 10
-34.8605841942
 20
13.6539603188
 30
0.0
 11
-35.2627575269
 21
13.3164968237
 31
0.0
  0
LINE
  5
252
330
1B
100
AcDbEntity
 67
     1
  8
0
  6
Continuous
 62
     7
370
    25
100
AcDbLine
 10
-35.3374899677
 20
13.1722009045
 30
0.0
 11
-35.9120233001
 21
12.6901101973
 31
0.0
  0
LINE
  5
253
330
1B
100
AcDbEntity
 67
     1
  8
0
  6
Continuous
 62
     7
370
    25
100
AcDbLine
 10
-35.7513263977
 20
12.4985990865
 30
0.0
 11
-35.7896286198
 21
12.466459706
 31
0.0
  0
LINE
  5
254
330
1B
100
AcDbEntity
 67
     1
  8
0
  6
Continuous
 62
     7
370
    25
100
AcDbLine
 10
-35.1384908432
 20
13.0128291743
 30
0.0
 11
-35.1767930653
 21
12.9806897938
 31
0.0
  0
LINE
  5
255
330
1B
100
AcDbEntity
 67
     1
  8
0
  6
Continuous
 62
     7
370
    25
100
AcDbLine
 10
-35.2627575269
 20
-13.3164968237
 30
0.0
 11
-34.8605841942
 21
-13.6539603188
 31
0.0
  0
LINE
  5
256
330
1B
100
AcDbEntity
 67
     1
  8
0
  6
Continuous
 62
     7
370
    25
100
AcDbLine
 10
-36.4692775248
 20
-12.3041063384
 30
0.0
 11
-36.0671041921
 21
-12.6415698335
 31
0.0
  0
LINE
  5
257
330
1B
100
AcDbEntity
 67
     1
  8
0
  6
Continuous
 62
     7
370
    25
100
AcDbLine
 10
-35.9120233001
 20
-12.6901101973
 30
0.0
 11
-35.3374899677
 21
-13.1722009045
 31
0.0
  0
LINE
  5
258
330
1B
100
AcDbEntity
 67
     1
  8
0
  6
Continuous
 62
     7
370
    25
100
AcDbLine
 10
-35.7896286198
 20
-12.466459706
 30
0.0
 11
-35.7513263977
 21
-12.4985990865
 31
0.0
  0
LINE
  5
259
330
1B
100
AcDbEntity
 67
     1
  8
0
  6
Continuous
 62
     7
370
    25
100
AcDbLine
 10
-35.1767930653
 20
-12.9806897938
 30
0.0
 11
-35.1384908432
 21
-13.0128291743
 31
0.0
  0
LINE
  5
25A
330
1B
100
AcDbEntity
 67
     1
  8
0
  6
Continuous
 62
     7
370
    25
100
AcDbLine
 10
35.6875
 20
2.1875
 30
0.0
 11
12.3125
 21
2.1875
 31
0.0
  0
LINE
  5
25B
330
1B
100
AcDbEntity
 67
     1
  8
0
  6
Continuous
 62
     7
370
    25
100
AcDbLine
 10
35.6875
 20
2.1875
 30
0.0
 11
35.6875
 21
1.9375
 31
0.0
  0
LINE
  5
25C
330
1B
100
AcDbEntity
 67
     1
  8
0
  6
Continuous
 62
     7
370
    25
100
AcDbLine
 10
12.3125
 20
2.1875
 30
0.0
 11
12.3125
 21
1.9375
 31
0.0
  0
LINE
  5
25D
330
1B
100
AcDbEntity
 67
     1
  8
0
  6
Continuous
 62
     7
370
    25
100
AcDbLine
 10
11.6875
 20
2.1875
 30
0.0
 11
-11.6875
 21
2.1875
 31
0.0
  0
LINE
  5
25E
330
1B
100
AcDbEntity
 67
     1
  8
0
  6
Continuous
 62
     7
370
    25
100
AcDbLine
 10
-11.6875
 20
2.1875
 30
0.0
 11
-11.6875
 21
1.9375
 31
0.0
  0
LINE
  5
25F
330
1B
100
AcDbEntity
 67
     1
  8
0
  6
Continuous
 62
     7
370
    25
100
AcDbLine
 10
11.6875
 20
2.1875
 30
0.0
 11
11.6875
 21
1.9375
 31
0.0
  0
LINE
  5
260
330
1B
100
AcDbEntity
 67
     1
  8
0
  6
Continuous
 62
     7
370
    25
100
AcDbLine
 10
-12.3125
 20
2.1875
 30
0.0
 11
-35.6875
 21
2.1875
 31
0.0
  0
LINE
  5
261
330
1B
100
AcDbEntity
 67
     1
  8
0
  6
Continuous
 62
     7
370
    25
100
AcDbLine
 10
-35.6875
 20
2.1875
 30
0.0
 11
-35.6875
 21
1.9375
 31
0.0
  0
LINE
  5
262
330
1B
100
AcDbEntity
 67
     1
  8
0
  6
Continuous
 62
     7
370
    25
100
AcDbLine
 10
-12.3125
 20
2.1875
 30
0.0
 11
-12.3125
 21
1.9375
 31
0.0
  0
LINE
  5
263
330
1B
100
AcDbEntity
 67
     1
  8
0
  6
Continuous
 62
     7
370
    25
100
AcDbLine
 10
35.6875
 20
-2.1875
 30
0.0
 11
12.3125
 21
-2.1875
 31
0.0
  0
LINE
  5
264
330
1B
100
AcDbEntity
 67
     1
  8
0
  6
Continuous
 62
     7
370
    25
100
AcDbLine
 10
35.6875
 20
-1.9375
 30
0.0
 11
35.6875
 21
-2.1875
 31
0.0
  0
LINE
  5
265
330
1B
100
AcDbEntity
 67
     1
  8
0
  6
Continuous
 62
     7
370
    25
100
AcDbLine
 10
12.3125
 20
-1.9375
 30
0.0
 11
12.3125
 21
-2.1875
 31
0.0
  0
LINE
  5
266
330
1B
100
AcDbEntity
 67
     1
  8
0
  6
Continuous
 62
     7
370
    25
100
AcDbLine
 10
11.6875
 20
-2.1875
 30
0.0
 11
-11.6875
 21
-2.1875
 31
0.0
  0
LINE
  5
267
330
1B
100
AcDbEntity
 67
     1
  8
0
  6
Continuous
 62
     7
370
    25
100
AcDbLine
 10
11.6875
 20
-1.9375
 30
0.0
 11
11.6875
 21
-2.1875
 31
0.0
  0
LINE
  5
268
330
1B
100
AcDbEntity
 67
     1
  8
0
  6
Continuous
 62
     7
370
    25
100
AcDbLine
 10
-11.6875
 20
-1.9375
 30
0.0
 11
-11.6875
 21
-2.1875
 31
0.0
  0
LINE
  5
269
330
1B
100
AcDbEntity
 67
     1
  8
0
  6
Continuous
 62
     7
370
    25
100
AcDbLine
 10
-12.3125
 20
-2.1875
 30
0.0
 11
-35.6875
 21
-2.1875
 31
0.0
  0
LINE
  5
26A
330
1B
100
AcDbEntity
 67
     1
  8
0
  6
Continuous
 62
     7
370
    25
100
AcDbLine
 10
-12.3125
 20
-1.9375
 30
0.0
 11
-12.3125
 21
-2.1875
 31
0.0
  0
LINE
  5
26B
330
1B
100
AcDbEntity
 67
     1
  8
0
  6
Continuous
 62
     7
370
    25
100
AcDbLine
 10
-35.6875
 20
-1.9375
 30
0.0
 11
-35.6875
 21
-2.1875
 31
0.0
  0
LINE
  5
26C
330
1B
100
AcDbEntity
 67
     1
  8
0
  6
Continuous
 62
     7
370
    25
100
AcDbLine
 10
35.7654220294
 20
-12.4376114149
 30
0.0
 11
35.9262209869
 21
-12.6292441502
 31
0.0
  0
LINE
  5
26D
330
1B
100
AcDbEntity
 67
     1
  8
0
  6
Continuous
 62
     7
370
    25
100
AcDbLine
 10
35.2750832101
 20
-13.1756136183
 30
0.0
 11
35.0340060449
 21
-12.8883090406
 31
0.0
  0
LINE
  5
26E
330
1B
100
AcDbEntity
 67
     1
  8
0
  6
Continuous
 62
     7
370
    25
100
AcDbLine
 10
35.7289879288
 20
-12.471977136
 30
0.0
 11
35.9120233001
 21
-12.6901101973
 31
0.0
  0
LINE
  5
26F
330
1B
100
AcDbEntity
 67
     1
  8
0
  6
Continuous
 62
     7
370
    25
100
AcDbLine
 10
35.0840055408
 20
-12.8701099281
 30
0.0
 11
35.3374899677
 21
-13.1722009045
 31
0.0
  0
LINE
  5
270
330
1B
100
AcDbEntity
 67
     1
  8
0
  6
Continuous
 62
     7
370
    25
100
AcDbLine
 10
35.7654220294
 20
12.4376114149
 30
0.0
 11
35.9262209869
 21
12.6292441502
 31
0.0
  0
LINE
  5
271
330
1B
100
AcDbEntity
 67
     1
  8
0
  6
Continuous
 62
     7
370
    25
100
AcDbLine
 10
35.2750832101
 20
13.1756136183
 30
0.0
 11
35.0340060449
 21
12.8883090406
 31
0.0
  0
LINE
  5
272
330
1B
100
AcDbEntity
 67
     1
  8
0
  6
Continuous
 62
     7
370
    25
100
AcDbLine
 10
35.7289879288
 20
12.471977136
 30
0.0
 11
35.9120233001
 21
12.6901101973
 31
0.0
  0
LINE
  5
273
330
1B
100
AcDbEntity
 67
     1
  8
0
  6
Continuous
 62
     7
370
    25
100
AcDbLine
 10
35.0840055408
 20
12.8701099281
 30
0.0
 11
35.3374899677
 21
13.1722009045
 31
0.0
  0
LINE
  5
274
330
1B
100
AcDbEntity
 67
     1
  8
0
  6
Continuous
 62
     7
370
    25
100
AcDbLine
 10
-35.2750832101
 20
13.1756136183
 30
0.0
 11
-35.0340060449
 21
12.8883090406
 31
0.0
  0
LINE
  5
275
330
1B
100
AcDbEntity
 67
     1
  8
0
  6
Continuous
 62
     7
370
    25
100
AcDbLine
 10
-35.7654220294
 20
12.4376114149
 30
0.0
 11
-35.9262209869
 21
12.6292441502
 31
0.0
  0
LINE
  5
276
330
1B
100
AcDbEntity
 67
     1
  8
0
  6
Continuous
 62
     7
370
    25
100
AcDbLine
 10
-35.7289879288
 20
12.471977136
 30
0.0
 11
-35.9120233001
 21
12.6901101973
 31
0.0
  0
LINE
  5
277
330
1B
100
AcDbEntity
 67
     1
  8
0
  6
Continuous
 62
     7
370
    25
100
AcDbLine
 10
-35.0840055408
 20
12.8701099281
 30
0.0
 11
-35.3374899677
 21
13.1722009045
 31
0.0
  0
LINE
  5
278
330
1B
100
AcDbEntity
 67
     1
  8
0
  6
Continuous
 62
     7
370
    25
100
AcDbLine
 10
-35.7654220294
 20
-12.4376114149
 30
0.0
 11
-35.9262209869
 21
-12.6292441502
 31
0.0
  0
LINE
  5
279
330
1B
100
AcDbEntity
 67
     1
  8
0
  6
Continuous
 62
     7
370
    25
100
AcDbLine
 10
-35.2750832101
 20
-13.1756136183
 30
0.0
 11
-35.0340060449
 21
-12.8883090406
 31
0.0
  0
LINE
  5
27A
330
1B
100
AcDbEntity
 67
     1
  8
0
  6
Continuous
 62
     7
370
    25
100
AcDbLine
 10
-35.7289879288
 20
-12.471977136
 30
0.0
 11
-35.9120233001
 21
-12.6901101973
 31
0.0
  0
LINE
  5
27B
330
1B
100
AcDbEntity
 67
     1
  8
0
  6
Continuous
 62
     7
370
    25
100
AcDbLine
 10
-35.0840055408
 20
-12.8701099281
 30
0.0
 11
-35.3374899677
 21
-13.1722009045
 31
0.0
  0
LINE
  5
27C
330
1B
100
AcDbEntity
 67
     1
  8
0
  6
Continuous
 62
     7
370
    25
100
AcDbLine
 10
30.875
 20
13.0
 30
0.0
 11
30.875
 21
3.75
 31
0.0
  0
LINE
  5
27D
330
1B
100
AcDbEntity
 67
     1
  8
0
  6
Continuous
 62
     7
370
    25
100
AcDbLine
 10
34.375
 20
-12.75
 30
0.0
 11
30.875
 21
-12.75
 31
0.0
  0
LINE
  5
27E
330
1B
100
AcDbEntity
 67
     1
  8
0
  6
Continuous
 62
     7
370
    25
100
AcDbLine
 10
-30.875
 20
-3.75
 30
0.0
 11
30.875
 21
-3.75
 31
0.0
  0
LINE
  5
27F
330
1B
100
AcDbEntity
 67
     1
  8
0
  6
Continuous
 62
     7
370
    25
100
AcDbLine
 10
-30.875
 20
-13.0
 30
0.0
 11
-30.875
 21
-3.75
 31
0.0
  0
LINE
  5
280
330
1B
100
AcDbEntity
 67
     1
  8
0
  6
Continuous
 62
     7
370
    25
100
AcDbLine
 10
-34.375
 20
-12.75
 30
0.0
 11
-30.875
 21
-12.75
 31
0.0
  0
LINE
  5
281
330
1B
100
AcDbEntity
 67
     1
  8
0
  6
Continuous
 62
     7
370
    25
100
AcDbLine
 10
-34.375
 20
12.75
 30
0.0
 11
-30.875
 21
12.75
 31
0.0
  0
LINE
  5
282
330
1B
100
AcDbEntity
 67
     1
  8
0
  6
Continuous
 62
     7
370
    25
100
AcDbLine
 10
-30.875
 20
3.75
 30
0.0
 11
-30.875
 21
13.0
 31
0.0
  0
LINE
  5
283
330
1B
100
AcDbEntity
 67
     1
  8
0
  6
Continuous
 62
     7
370
    25
100
AcDbLine
 10
30.875
 20
3.75
 30
0.0
 11
-30.875
 21
3.75
 31
0.0
  0
LINE
  5
284
330
1B
100
AcDbEntity
 67
     1
  8
0
  6
Continuous
 62
     7
370
    25
100
AcDbLine
 10
30.875
 20
-3.75
 30
0.0
 11
30.875
 21
-13.0
 31
0.0
  0
LINE
  5
285
330
1B
100
AcDbEntity
 67
     1
  8
0
  6
Continuous
 62
     7
370
    25
100
AcDbLine
 10
-31.625
 20
-13.0
 30
0.0
 11
-31.625
 21
-12.75
 31
0.0
  0
LINE
  5
286
330
1B
100
AcDbEntity
 67
     1
  8
0
  6
Continuous
 62
     7
370
    25
100
AcDbLine
 10
-34.375
 20
-13.0
 30
0.0
 11
-30.875
 21
-13.0
 31
0.0
  0
LINE
  5
287
330
1B
100
AcDbEntity
 67
     1
  8
0
  6
Continuous
 62
     7
370
    25
100
AcDbLine
 10
31.625
 20
-12.75
 30
0.0
 11
31.625
 21
-13.0
 31
0.0
  0
LINE
  5
288
330
1B
100
AcDbEntity
 67
     1
  8
0
  6
Continuous
 62
     7
370
    25
100
AcDbLine
 10
34.375
 20
-13.0
 30
0.0
 11
30.875
 21
-13.0
 31
0.0
  0
LINE
  5
289
330
1B
100
AcDbEntity
 67
     1
  8
0
  6
Continuous
 62
     7
370
    25
100
AcDbLine
 10
36.125
 20
-11.0
 30
0.0
 11
36.125
 21
-1.9375
 31
0.0
  0
LINE
  5
28A
330
1B
100
AcDbEntity
 67
     1
  8
0
  6
Continuous
 62
     7
370
    25
100
AcDbLine
 10
36.125
 20
1.9375
 30
0.0
 11
36.125
 21
11.0
 31
0.0
  0
LINE
  5
28B
330
1B
100
AcDbEntity
 67
     1
  8
0
  6
Continuous
 62
     7
370
    25
100
AcDbLine
 10
34.375
 20
12.75
 30
0.0
 11
30.875
 21
12.75
 31
0.0
  0
LINE
  5
28C
330
1B
100
AcDbEntity
 67
     1
  8
0
  6
Continuous
 62
     7
370
    25
100
AcDbLine
 10
36.375
 20
11.0
 30
0.0
 11
36.375
 21
-11.0
 31
0.0
  0
LINE
  5
28D
330
1B
100
AcDbEntity
 67
     1
  8
0
  6
Continuous
 62
     7
370
    25
100
AcDbLine
 10
34.375
 20
13.0
 30
0.0
 11
30.875
 21
13.0
 31
0.0
  0
LINE
  5
28E
330
1B
100
AcDbEntity
 67
     1
  8
0
  6
Continuous
 62
     7
370
    25
100
AcDbLine
 10
-31.625
 20
12.75
 30
0.0
 11
-31.625
 21
13.0
 31
0.0
  0
LINE
  5
28F
330
1B
100
AcDbEntity
 67
     1
  8
0
  6
Continuous
 62
     7
370
    25
100
AcDbLine
 10
-34.375
 20
13.0
 30
0.0
 11
-30.875
 21
13.0
 31
0.0
  0
LINE
  5
290
330
1B
100
AcDbEntity
 67
     1
  8
0
  6
Continuous
 62
     7
370
    25
100
AcDbLine
 10
-36.375
 20
11.0
 30
0.0
 11
-36.375
 21
-11.0
 31
0.0
  0
LINE
  5
291
330
1B
100
AcDbEntity
 67
     1
  8
0
  6
Continuous
 62
     7
370
    25
100
AcDbLine
 10
-36.125
 20
11.0
 30
0.0
 11
-36.125
 21
1.9375
 31
0.0
  0
LINE
  5
292
330
1B
100
AcDbEntity
 67
     1
  8
0
  6
Continuous
 62
     7
370
    25
100
AcDbLine
 10
-36.125
 20
-1.9375
 30
0.0
 11
-36.125
 21
-11.0
 31
0.0
  0
LINE
  5
293
330
1B
100
AcDbEntity
 67
     1
  8
0
  6
Continuous
 62
     7
370
    25
100
AcDbLine
 10
36.375
 20
-1.9375
 30
0.0
 11
-36.375
 21
-1.9375
 31
0.0
  0
LINE
  5
294
330
1B
100
AcDbEntity
 67
     1
  8
0
  6
Continuous
 62
     7
370
    25
100
AcDbLine
 10
36.375
 20
1.9375
 30
0.0
 11
-36.375
 21
1.9375
 31
0.0
  0
LINE
  5
295
330
1B
100
AcDbEntity
 67
     1
  8
0
  6
Continuous
 62
     7
370
    25
100
AcDbLine
 10
34.9310260261
 20
-12.9211546159
 30
0.0
 11
35.2627575269
 21
-13.3164968237
 31
0.0
  0
LINE
  5
296
330
1B
100
AcDbEntity
 67
     1
  8
0
  6
Continuous
 62
     7
370
    25
100
AcDbLine
 10
36.0671041921
 20
-12.6415698335
 30
0.0
 11
35.8358561945
 21
-12.3659792015
 31
0.0
  0
LINE
  5
297
330
1B
100
AcDbEntity
 67
     1
  8
0
  6
Continuous
 62
     7
370
    25
100
AcDbLine
 10
36.0671041921
 20
12.6415698335
 30
0.0
 11
35.8358561945
 21
12.3659792015
 31
0.0
  0
LINE
  5
298
330
1B
100
AcDbEntity
 67
     1
  8
0
  6
Continuous
 62
     7
370
    25
100
AcDbLine
 10
34.9310260261
 20
12.9211546159
 30
0.0
 11
35.2627575269
 21
13.3164968237
 31
0.0
  0
LINE
  5
299
330
1B
100
AcDbEntity
 67
     1
  8
0
  6
Continuous
 62
     7
370
    25
100
AcDbLine
 10
-36.0671041921
 20
12.6415698335
 30
0.0
 11
-35.8358561945
 21
12.3659792015
 31
0.0
  0
LINE
  5
29A
330
1B
100
AcDbEntity
 67
     1
  8
0
  6
Continuous
 62
     7
370
    25
100
AcDbLine
 10
-34.9310260261
 20
12.9211546159
 30
0.0
 11
-35.2627575269
 21
13.3164968237
 31
0.0
  0
LINE
  5
29B
330
1B
100
AcDbEntity
 67
     1
  8
0
  6
Continuous
 62
     7
370
    25
100
AcDbLine
 10
-34.9310260261
 20
-12.9211546159
 30
0.0
 11
-35.2627575269
 21
-13.3164968237
 31
0.0
  0
LINE
  5
29C
330
1B
100
AcDbEntity
 67
     1
  8
0
  6
Continuous
 62
     7
370
    25
100
AcDbLine
 10
-36.0671041921
 20
-12.6415698335
 30
0.0
 11
-35.8358561945
 21
-12.3659792015
 31
0.0
  0
ARC
  5
29D
330
1B
100
AcDbEntity
 67
     1
  8
0
  6
Continuous
 62
     7
370
    25
100
AcDbCircle
 10
36.0028254312
 20
-12.5649653892
 30
0.0
 40
0.0999999999999975
100
AcDbArc
 50
220.0
 51
310.0
  0
ARC
  5
29E
330
1B
100
AcDbEntity
 67
     1
  8
0
  6
Continuous
 62
     7
370
    25
100
AcDbCircle
 10
35.1984787659
 20
-13.2398923794
 30
0.0
 40
0.0999999999999991
100
AcDbArc
 50
310.0
 51
40.0
  0
ARC
  5
29F
330
1B
100
AcDbEntity
 67
     1
  8
0
  6
Continuous
 62
     7
370
    25
100
AcDbCircle
 10
36.0028254312
 20
12.5649653892
 30
0.0
 40
0.1000000000000057
100
AcDbArc
 50
50.0
 51
140.0
  0
ARC
  5
2A0
330
1B
100
AcDbEntity
 67
     1
  8
0
  6
Continuous
 62
     7
370
    25
100
AcDbCircle
 10
35.1984787659
 20
13.2398923794
 30
0.0
 40
0.0999999999999989
100
AcDbArc
 50
320.0
 51
50.0
  0
ARC
  5
2A1
330
1B
100
AcDbEntity
 67
     1
  8
0
  6
Continuous
 62
     7
370
    25
100
AcDbCircle
 10
-35.1984787659
 20
13.2398923794
 30
0.0
 40
0.1000000000000002
100
AcDbArc
 50
130.0
 51
220.0
  0
ARC
  5
2A2
330
1B
100
AcDbEntity
 67
     1
  8
0
  6
Continuous
 62
     7
370
    25
100
AcDbCircle
 10
-36.0028254312
 20
12.5649653892
 30
0.0
 40
0.0999999999999989
100
AcDbArc
 50
40.0
 51
130.0
  0
ARC
  5
2A3
330
1B
100
AcDbEntity
 67
     1
  8
0
  6
Continuous
 62
     7
370
    25
100
AcDbCircle
 10
-36.0028254312
 20
-12.5649653892
 30
0.0
 40
0.100000000000007
100
AcDbArc
 50
230.0
 51
320.0
  0
ARC
  5
2A4
330
1B
100
AcDbEntity
 67
     1
  8
0
  6
Continuous
 62
     7
370
    25
100
AcDbCircle
 10
-35.1984787659
 20
-13.2398923794
 30
0.0
 40
0.0999999999999991
100
AcDbArc
 50
140.0
 51
230.0
  0
ARC
  5
2A5
330
1B
100
AcDbEntity
 67
     1
  8
0
  6
Continuous
 62
     7
370
    25
100
AcDbCircle
 10
34.375
 20
11.0
 30
0.0
 40
1.750000000000007
100
AcDbArc
 50
0.0
 51
90.0
  0
ARC
  5
2A6
330
1B
100
AcDbEntity
 67
     1
  8
0
  6
Continuous
 62
     7
370
    25
100
AcDbCircle
 10
34.375
 20
-11.0
 30
0.0
 40
2.000000000000014
100
AcDbArc
 50
270.0
 51
0.0
  0
ARC
  5
2A7
330
1B
100
AcDbEntity
 67
     1
  8
0
  6
Continuous
 62
     7
370
    25
100
AcDbCircle
 10
34.375
 20
-11.0
 30
0.0
 40
1.75
100
AcDbArc
 50
270.0
 51
0.0
  0
ARC
  5
2A8
330
1B
100
AcDbEntity
 67
     1
  8
0
  6
Continuous
 62
     7
370
    25
100
AcDbCircle
 10
34.375
 20
11.0
 30
0.0
 40
2.000000000000014
100
AcDbArc
 50
0.0
 51
90.0
  0
ARC
  5
2A9
330
1B
100
AcDbEntity
 67
     1
  8
0
  6
Continuous
 62
     7
370
    25
100
AcDbCircle
 10
-34.375
 20
-11.0
 30
0.0
 40
1.750000000000007
100
AcDbArc
 50
180.0
 51
270.0
  0
ARC
  5
2AA
330
1B
100
AcDbEntity
 67
     1
  8
0
  6
Continuous
 62
     7
370
    25
100
AcDbCircle
 10
-34.375
 20
-11.0
 30
0.0
 40
2.000000000000014
100
AcDbArc
 50
180.0
 51
270.0
  0
ARC
  5
2AB
330
1B
100
AcDbEntity
 67
     1
  8
0
  6
Continuous
 62
     7
370
    25
100
AcDbCircle
 10
-34.375
 20
11.0
 30
0.0
 40
1.749999999999979
100
AcDbArc
 50
90.0
 51
180.0
  0
ARC
  5
2AC
330
1B
100
AcDbEntity
 67
     1
  8
0
  6
Continuous
 62
     7
370
    25
100
AcDbCircle
 10
-34.375
 20
11.0
 30
0.0
 40
2.000000000000057
100
AcDbArc
 50
90.0
 51
180.0
  0
VIEWPORT
  5
340
330
1B
100
AcDbEntity
 67
     1
  8
0
100
AcDbViewport
 10
0.0
 20
0.0
 30
0.0
 40
8.4
 41
6.4
 68
     1
 69
     1
 12
0.0
 22
8.7202816478
 13
0.0
 23
0.0
 14
0.5
 24
0.5
 15
0.5
 25
0.5
 16
0.0
 26
0.0
 36
1.0
 17
0.0
 27
0.0
 37
0.0
 42
50.0
 43
0.0
 44
0.0
 45
56.6981942338
 50
0.0
 51
0.0
 72
   100
 90
   557152
  1

281
     0
 71
     1
 74
     0
110
0.0
120
0.0
130
0.0
111
1.0
121
0.0
131
0.0
112
0.0
122
1.0
132
0.0
 79
     0
146
0.0
  0
ENDSEC
  0
SECTION
  2
OBJECTS
  0
DICTIONARY
  5
C
330
0
100
AcDbDictionary
281
     1
  3
ACAD_GROUP
350
D
  3
ACAD_LAYOUT
350
1A
  3
ACAD_MLINESTYLE
350
17
  3
ACAD_PLOTSETTINGS
350
19
  3
ACAD_PLOTSTYLENAME
350
E
  3
ACAD_SCALELIST
350
47
  3
DWGPROPS
350
344
  0
DICTIONARY
  5
D
102
{ACAD_REACTORS
330
C
102
}
330
C
100
AcDbDictionary
281
     1
  0
DICTIONARY
  5
1A
102
{ACAD_REACTORS
330
C
102
}
330
C
100
AcDbDictionary
281
     1
  3
_Right
350
26
  3
_Top
350
1E
  3
Model
350
22
  0
DICTIONARY
  5
17
102
{ACAD_REACTORS
330
C
102
}
330
C
100
AcDbDictionary
281
     1
  3
Standard
350
18
  0
DICTIONARY
  5
19
102
{ACAD_REACTORS
330
C
102
}
330
C
100
AcDbDictionary
281
     1
  0
ACDBDICTIONARYWDFLT
  5
E
102
{ACAD_REACTORS
330
C
102
}
330
C
100
AcDbDictionary
281
     1
  3
Normal
350
F
100
AcDbDictionaryWithDefault
340
F
  0
DICTIONARY
  5
47
102
{ACAD_REACTORS
330
C
102
}
330
C
100
AcDbDictionary
281
     1
  3
A0
350
48
  3
A1
350
49
  3
A2
350
4A
  3
A3
350
4B
  3
A4
350
4C
  3
A5
350
4D
  3
A6
350
4E
  3
A7
350
4F
  3
A8
350
50
  3
A9
350
51
  3
B1
350
52
  3
B2
350
53
  3
B3
350
54
  3
B4
350
55
  3
B5
350
56
  3
B6
350
57
  3
B7
350
58
  0
XRECORD
  5
344
102
{ACAD_REACTORS
330
C
102
}
330
C
100
AcDbXrecord
280
     1
  1
DWGPROPS COOKIE
  2

  3

  4

  6

  7

  8
kshultis
  9

300
=
301
=
302
=
303
=
304
=
305
=
306
=
307
=
308
=
309
=
 40
0.0
 41
2459867.800520856
 42
2459867.800549502
  1

 90
        0
  0
LAYOUT
  5
26
102
{ACAD_REACTORS
330
1A
102
}
330
1A
100
AcDbPlotSettings
  1

  2
none_device
  4
Letter_(8.50_x_11.00_Inches)
  6

 40
6.35
 41
6.35
 42
6.35001
 43
6.35001
 44
215.9
 45
279.4
 46
0.0
 47
0.0
 48
0.0
 49
0.0
140
0.0
141
0.0
142
1.0
143
6.9483752684
 70
   688
 72
     0
 73
     1
 74
     1
  7

 75
     0
147
0.1439185365
148
926.5658072929
149
347.0200919554
100
AcDbLayout
  1
_Right
 70
     1
 71
     2
 10
0.0
 20
0.0
 11
0.0
 21
0.0
 12
0.0
 22
0.0
 32
0.0
 14
0.0
 24
0.0
 34
0.0
 15
0.0
 25
0.0
 35
0.0
146
0.0
 13
0.0
 23
0.0
 33
0.0
 16
1.0
 26
0.0
 36
0.0
 17
0.0
 27
1.0
 37
0.0
 76
     0
330
23
331
342
  0
LAYOUT
  5
1E
102
{ACAD_REACTORS
330
1A
102
}
330
1A
100
AcDbPlotSettings
  1

  2
none_device
  4
Letter_(8.50_x_11.00_Inches)
  6

 40
6.35
 41
6.35
 42
6.35001
 43
6.35001
 44
215.9
 45
279.4
 46
0.0
 47
0.0
 48
0.0
 49
0.0
140
0.0
141
0.0
142
1.0
143
6.9483752684
 70
   688
 72
     0
 73
     1
 74
     1
  7

 75
     0
147
0.1439185365
148
926.5658072929
149
347.0200919554
100
AcDbLayout
  1
_Top
 70
     1
 71
     1
 10
-38.2160653437
 20
-15.3993021618
 11
38.2160626081
 21
43.6618876192
 12
0.0
 22
0.0
 32
0.0
 14
-36.4789687911
 24
-13.6622083447
 34
0.0
 15
36.4789687911
 25
13.6622083447
 35
0.0
146
0.0
 13
0.0
 23
0.0
 33
0.0
 16
1.0
 26
0.0
 36
0.0
 17
0.0
 27
1.0
 37
0.0
 76
     0
330
1B
331
340
  0
LAYOUT
  5
22
102
{ACAD_REACTORS
330
1A
102
}
330
1A
100
AcDbPlotSettings
  1

  2
none_device
  4
ANSI_A_(11.00_x_8.50_Inches)
  6

 40
6.35
 41
19.05
 42
6.35000508
 43
19.05000254
 44
279.4
 45
215.9
 46
133.34999746
 47
55.838408362
 48
0.0
 49
0.0
140
0.0
141
0.0
142
0.1492655247
143
1.0
 70
  1696
 72
     0
 73
     0
 74
     0
  7

 75
     0
147
0.5913241897
148
-39.4088153714
149
0.0
100
AcDbLayout
  1
Model
 70
     1
 71
     0
 10
0.0
 20
0.0
 11
12.0
 21
9.0
 12
0.0
 22
0.0
 32
0.0
 14
-36.4786176137
 24
-7.0004367044
 34
0.0
 15
36.4786176137
 25
24.441
 35
0.0
146
0.0
 13
0.0
 23
0.0
 33
0.0
 16
1.0
 26
0.0
 36
0.0
 17
0.0
 27
1.0
 37
0.0
 76
     0
330
1F
331
29
  0
MLINESTYLE
  5
18
102
{ACAD_REACTORS
330
17
102
}
330
17
100
AcDbMlineStyle
  2
Standard
 70
     0
  3

 62
   256
 51
90.0
 52
90.0
 71
     2
 49
0.5
 62
   256
  6
BYLAYER
 49
-0.5
 62
   256
  6
BYLAYER
  0
ACDBPLACEHOLDER
  5
F
102
{ACAD_REACTORS
330
E
102
}
330
E
  0
SCALE
  5
48
102
{ACAD_REACTORS
330
47
102
}
330
47
100
AcDbScale
 70
     0
300
1:1
140
1.0
141
1.0
290
     1
  0
SCALE
  5
49
102
{ACAD_REACTORS
330
47
102
}
330
47
100
AcDbScale
 70
     0
300
1/128" = 1'-0"
140
0.0078125
141
12.0
290
     0
  0
SCALE
  5
4A
102
{ACAD_REACTORS
330
47
102
}
330
47
100
AcDbScale
 70
     0
300
1/64" = 1'-0"
140
0.015625
141
12.0
290
     0
  0
SCALE
  5
4B
102
{ACAD_REACTORS
330
47
102
}
330
47
100
AcDbScale
 70
     0
300
1/32" = 1'-0"
140
0.03125
141
12.0
290
     0
  0
SCALE
  5
4C
102
{ACAD_REACTORS
330
47
102
}
330
47
100
AcDbScale
 70
     0
300
1/16" = 1'-0"
140
0.0625
141
12.0
290
     0
  0
SCALE
  5
4D
102
{ACAD_REACTORS
330
47
102
}
330
47
100
AcDbScale
 70
     0
300
3/32" = 1'-0"
140
0.09375
141
12.0
290
     0
  0
SCALE
  5
4E
102
{ACAD_REACTORS
330
47
102
}
330
47
100
AcDbScale
 70
     0
300
1/8" = 1'-0"
140
0.125
141
12.0
290
     0
  0
SCALE
  5
4F
102
{ACAD_REACTORS
330
47
102
}
330
47
100
AcDbScale
 70
     0
300
3/16" = 1'-0"
140
0.1875
141
12.0
290
     0
  0
SCALE
  5
50
102
{ACAD_REACTORS
330
47
102
}
330
47
100
AcDbScale
 70
     0
300
1/4" = 1'-0"
140
0.25
141
12.0
290
     0
  0
SCALE
  5
51
102
{ACAD_REACTORS
330
47
102
}
330
47
100
AcDbScale
 70
     0
300
3/8" = 1'-0"
140
0.375
141
12.0
290
     0
  0
SCALE
  5
52
102
{ACAD_REACTORS
330
47
102
}
330
47
100
AcDbScale
 70
     0
300
1/2" = 1'-0"
140
0.5
141
12.0
290
     0
  0
SCALE
  5
53
102
{ACAD_REACTORS
330
47
102
}
330
47
100
AcDbScale
 70
     0
300
3/4" = 1'-0"
140
0.75
141
12.0
290
     0
  0
SCALE
  5
54
102
{ACAD_REACTORS
330
47
102
}
330
47
100
AcDbScale
 70
     0
300
1" = 1'-0"
140
1.0
141
12.0
290
     0
  0
SCALE
  5
55
102
{ACAD_REACTORS
330
47
102
}
330
47
100
AcDbScale
 70
     0
300
1-1/2" = 1'-0"
140
1.5
141
12.0
290
     0
  0
SCALE
  5
56
102
{ACAD_REACTORS
330
47
102
}
330
47
100
AcDbScale
 70
     0
300
3" = 1'-0"
140
3.0
141
12.0
290
     0
  0
SCALE
  5
57
102
{ACAD_REACTORS
330
47
102
}
330
47
100
AcDbScale
 70
     0
300
6" = 1'-0"
140
6.0
141
12.0
290
     0
  0
SCALE
  5
58
102
{ACAD_REACTORS
330
47
102
}
330
47
100
AcDbScale
 70
     0
300
1'-0" = 1'-0"
140
12.0
141
12.0
290
     0
  0
ENDSEC
  0
EOF
