  0
SECTION
  2
HEADER
  9
$ACADVER
  1
AC1015
  9
$ACADMAINTVER
 70
     6
  9
$DWGCODEPAGE
  3
ANSI_1252
  9
$INSBASE
 10
0.0
 20
0.0
 30
0.0
  9
$EXTMIN
 10
-24.4786176137
 20
-7.0004367044
 30
0.0
  9
$EXTMAX
 10
24.4786176137
 20
60.441
 30
0.0
  9
$LIMMIN
 10
0.0
 20
0.0
  9
$LIMMAX
 10
12.0
 20
9.0
  9
$ORTHOMODE
 70
     0
  9
$REGENMODE
 70
     1
  9
$FILLMODE
 70
     1
  9
$QTEXTMODE
 70
     0
  9
$MIRRTEXT
 70
     1
  9
$LTSCALE
 40
1.0
  9
$ATTMODE
 70
     1
  9
$TEXTSIZE
 40
0.1377952756
  9
$TRACEWID
 40
0.05
  9
$TEXTSTYLE
  7
Standard
  9
$CLAYER
  8
0
  9
$CELTYPE
  6
ByLayer
  9
$CECOLOR
 62
   256
  9
$CELTSCALE
 40
1.0
  9
$DISPSILH
 70
     0
  9
$DIMSCALE
 40
1.0
  9
$DIMASZ
 40
0.156
  9
$DIMEXO
 40
0.0
  9
$DIMDLI
 40
0.38
  9
$DIMRND
 40
0.0
  9
$DIMDLE
 40
0.0
  9
$DIMEXE
 40
0.125
  9
$DIMTP
 40
0.0
  9
$DIMTM
 40
0.0
  9
$DIMTXT
 40
0.1377952756
  9
$DIMCEN
 40
0.09
  9
$DIMTSZ
 40
0.0
  9
$DIMTOL
 70
     0
  9
$DIMLIM
 70
     0
  9
$DIMTIH
 70
     1
  9
$DIMTOH
 70
     1
  9
$DIMSE1
 70
     0
  9
$DIMSE2
 70
     0
  9
$DIMTAD
 70
     0
  9
$DIMZIN
 70
     0
  9
$DIMBLK
  1

  9
$DIMASO
 70
     1
  9
$DIMSHO
 70
     1
  9
$DIMPOST
  1

  9
$DIMAPOST
  1

  9
$DIMALT
 70
     0
  9
$DIMALTD
 70
     2
  9
$DIMALTF
 40
25.4
  9
$DIMLFAC
 40
1.0
  9
$DIMTOFL
 70
     0
  9
$DIMTVP
 40
0.0
  9
$DIMTIX
 70
     0
  9
$DIMSOXD
 70
     0
  9
$DIMSAH
 70
     0
  9
$DIMBLK1
  1

  9
$DIMBLK2
  1

  9
$DIMSTYLE
  2
Standard
  9
$DIMCLRD
 70
     0
  9
$DIMCLRE
 70
     0
  9
$DIMCLRT
 70
     0
  9
$DIMTFAC
 40
1.0
  9
$DIMGAP
 40
0.06
  9
$DIMJUST
 70
     0
  9
$DIMSD1
 70
     0
  9
$DIMSD2
 70
     0
  9
$DIMTOLJ
 70
     1
  9
$DIMTZIN
 70
     0
  9
$DIMALTZ
 70
     0
  9
$DIMALTTZ
 70
     0
  9
$DIMUPT
 70
     0
  9
$DIMDEC
 70
     3
  9
$DIMTDEC
 70
     3
  9
$DIMALTU
 70
     2
  9
$DIMALTTD
 70
     2
  9
$DIMTXSTY
  7
Standard
  9
$DIMAUNIT
 70
     0
  9
$DIMADEC
 70
     2
  9
$DIMALTRND
 40
0.0
  9
$DIMAZIN
 70
     0
  9
$DIMDSEP
 70
    46
  9
$DIMATFIT
 70
     3
  9
$DIMFRAC
 70
     0
  9
$DIMLDRBLK
  1

  9
$DIMLUNIT
 70
     2
  9
$DIMLWD
 70
    -2
  9
$DIMLWE
 70
    -2
  9
$DIMTMOVE
 70
     0
  9
$LUNITS
 70
     2
  9
$LUPREC
 70
     2
  9
$SKETCHINC
 40
0.1
  9
$FILLETRAD
 40
0.0
  9
$AUNITS
 70
     0
  9
$AUPREC
 70
     4
  9
$MENU
  1
.
  9
$ELEVATION
 40
0.0
  9
$PELEVATION
 40
0.0
  9
$THICKNESS
 40
0.0
  9
$LIMCHECK
 70
     0
  9
$CHAMFERA
 40
0.0
  9
$CHAMFERB
 40
0.0
  9
$CHAMFERC
 40
0.0
  9
$CHAMFERD
 40
0.0
  9
$SKPOLY
 70
     0
  9
$TDCREATE
 40
2459867.662460787
  9
$TDUCREATE
 40
2459867.829127454
  9
$TDUPDATE
 40
2459867.662489965
  9
$TDUUPDATE
 40
2459867.829156632
  9
$TDINDWG
 40
0.0000000116
  9
$TDUSRTIMER
 40
0.0000000116
  9
$USRTIMER
 70
     1
  9
$ANGBASE
 50
0.0
  9
$ANGDIR
 70
     0
  9
$PDMODE
 70
     0
  9
$PDSIZE
 40
-1.0
  9
$PLINEWID
 40
0.0
  9
$SPLFRAME
 70
     0
  9
$SPLINETYPE
 70
     6
  9
$SPLINESEGS
 70
     8
  9
$HANDSEED
  5
3C0
  9
$SURFTAB1
 70
     6
  9
$SURFTAB2
 70
     6
  9
$SURFTYPE
 70
     6
  9
$SURFU
 70
     6
  9
$SURFV
 70
     6
  9
$UCSBASE
  2

  9
$UCSNAME
  2

  9
$UCSORG
 10
0.0
 20
0.0
 30
0.0
  9
$UCSXDIR
 10
1.0
 20
0.0
 30
0.0
  9
$UCSYDIR
 10
0.0
 20
1.0
 30
0.0
  9
$UCSORTHOREF
  2

  9
$UCSORTHOVIEW
 70
     0
  9
$UCSORGTOP
 10
0.0
 20
0.0
 30
0.0
  9
$UCSORGBOTTOM
 10
0.0
 20
0.0
 30
0.0
  9
$UCSORGLEFT
 10
0.0
 20
0.0
 30
0.0
  9
$UCSORGRIGHT
 10
0.0
 20
0.0
 30
0.0
  9
$UCSORGFRONT
 10
0.0
 20
0.0
 30
0.0
  9
$UCSORGBACK
 10
0.0
 20
0.0
 30
0.0
  9
$PUCSBASE
  2

  9
$PUCSNAME
  2

  9
$PUCSORG
 10
0.0
 20
0.0
 30
0.0
  9
$PUCSXDIR
 10
1.0
 20
0.0
 30
0.0
  9
$PUCSYDIR
 10
0.0
 20
1.0
 30
0.0
  9
$PUCSORTHOREF
  2

  9
$PUCSORTHOVIEW
 70
     0
  9
$PUCSORGTOP
 10
0.0
 20
0.0
 30
0.0
  9
$PUCSORGBOTTOM
 10
0.0
 20
0.0
 30
0.0
  9
$PUCSORGLEFT
 10
0.0
 20
0.0
 30
0.0
  9
$PUCSORGRIGHT
 10
0.0
 20
0.0
 30
0.0
  9
$PUCSORGFRONT
 10
0.0
 20
0.0
 30
0.0
  9
$PUCSORGBACK
 10
0.0
 20
0.0
 30
0.0
  9
$USERI1
 70
     0
  9
$USERI2
 70
     0
  9
$USERI3
 70
     0
  9
$USERI4
 70
     0
  9
$USERI5
 70
     0
  9
$USERR1
 40
0.0
  9
$USERR2
 40
0.0
  9
$USERR3
 40
0.0
  9
$USERR4
 40
0.0
  9
$USERR5
 40
0.0
  9
$WORLDVIEW
 70
     1
  9
$SHADEDGE
 70
     3
  9
$SHADEDIF
 70
    70
  9
$TILEMODE
 70
     1
  9
$MAXACTVP
 70
    64
  9
$PINSBASE
 10
0.0
 20
0.0
 30
0.0
  9
$PLIMCHECK
 70
     0
  9
$PEXTMIN
 10
-24.4789687911
 20
-13.6622083447
 30
0.0
  9
$PEXTMAX
 10
24.4789687911
 20
13.6622083447
 30
0.0
  9
$PLIMMIN
 10
-25.644635851
 20
-14.8278735689
  9
$PLIMMAX
 10
25.6446340153
 20
24.804744055
  9
$UNITMODE
 70
     0
  9
$VISRETAIN
 70
     1
  9
$PLINEGEN
 70
     0
  9
$PSLTSCALE
 70
     1
  9
$TREEDEPTH
 70
  3020
  9
$CMLSTYLE
  2
Standard
  9
$CMLJUST
 70
     0
  9
$CMLSCALE
 40
1.0
  9
$PROXYGRAPHICS
 70
     1
  9
$MEASUREMENT
 70
     0
  9
$CELWEIGHT
370
    -1
  9
$ENDCAPS
280
     0
  9
$JOINSTYLE
280
     0
  9
$LWDISPLAY
290
     1
  9
$INSUNITS
 70
     1
  9
$HYPERLINKBASE
  1

  9
$STYLESHEET
  1

  9
$XEDIT
290
     1
  9
$CEPSNTYPE
380
     0
  9
$PSTYLEMODE
290
     1
  9
$FINGERPRINTGUID
  2
{5c181a62-3ed8-4deb-b72e-7956cc3278dd}
  9
$VERSIONGUID
  2
{FAEB1C32-E019-11D5-929B-00C0DF256EC4}
  9
$EXTNAMES
290
     1
  9
$PSVPSCALE
 40
0.0
  9
$OLESTARTUP
290
     0
  0
ENDSEC
  0
SECTION
  2
CLASSES
  0
CLASS
  1
ACDBDICTIONARYWDFLT
  2
AcDbDictionaryWithDefault
  3
ObjectDBX Classes
 90
        0
280
     0
281
     0
  0
CLASS
  1
VISUALSTYLE
  2
AcDbVisualStyle
  3
ObjectDBX Classes
 90
     4095
280
     0
281
     0
  0
CLASS
  1
MATERIAL
  2
AcDbMaterial
  3
ObjectDBX Classes
 90
     1153
280
     0
281
     0
  0
CLASS
  1
SCALE
  2
AcDbScale
  3
ObjectDBX Classes
 90
     1153
280
     0
281
     0
  0
CLASS
  1
TABLESTYLE
  2
AcDbTableStyle
  3
ObjectDBX Classes
 90
     4095
280
     0
281
     0
  0
CLASS
  1
MLEADERSTYLE
  2
AcDbMLeaderStyle
  3
ACDB_MLEADERSTYLE_CLASS
 90
     4095
280
     0
281
     0
  0
CLASS
  1
SUN
  2
AcDbSun
  3
SCENEOE
 90
     1153
280
     0
281
     0
  0
CLASS
  1
ACDBPLACEHOLDER
  2
AcDbPlaceHolder
  3
ObjectDBX Classes
 90
        0
280
     0
281
     0
  0
CLASS
  1
LAYOUT
  2
AcDbLayout
  3
ObjectDBX Classes
 90
        0
280
     0
281
     0
  0
ENDSEC
  0
SECTION
  2
TABLES
  0
TABLE
  2
VPORT
  5
8
330
0
100
AcDbSymbolTable
 70
     1
  0
VPORT
  5
29
330
8
100
AcDbSymbolTableRecord
100
AcDbViewportTableRecord
  2
*Active
 70
     0
 10
0.0
 20
0.0
 11
1.0
 21
1.0
 12
0.0
 22
26.7202816478
 13
0.0
 23
0.0
 14
0.5
 24
0.5
 15
0.5
 25
0.5
 16
0.0
 26
0.0
 36
1.0
 17
0.0
 27
0.0
 37
0.0
 40
68.7902654385
 41
0.725922187
 42
50.0
 43
0.0
 44
0.0
 50
0.0
 51
0.0
 71
     0
 72
   100
 73
     1
 74
     3
 75
     0
 76
     0
 77
     0
 78
     0
281
     0
 65
     1
110
0.0
120
0.0
130
0.0
111
1.0
121
0.0
131
0.0
112
0.0
122
1.0
132
0.0
 79
     0
146
0.0
  0
ENDTAB
  0
TABLE
  2
LTYPE
  5
5
330
0
100
AcDbSymbolTable
 70
     6
  0
LTYPE
  5
14
330
5
100
AcDbSymbolTableRecord
100
AcDbLinetypeTableRecord
  2
ByBlock
 70
     0
  3

 72
    65
 73
     0
 40
0.0
  0
LTYPE
  5
15
330
5
100
AcDbSymbolTableRecord
100
AcDbLinetypeTableRecord
  2
ByLayer
 70
     0
  3

 72
    65
 73
     0
 40
0.0
  0
LTYPE
  5
16
330
5
100
AcDbSymbolTableRecord
100
AcDbLinetypeTableRecord
  2
Continuous
 70
     0
  3
Solid line
 72
    65
 73
     0
 40
0.0
  0
LTYPE
  5
5E
330
5
100
AcDbSymbolTableRecord
100
AcDbLinetypeTableRecord
  2
HIDDEN
 70
     0
  3
Hidden __ __ __ __ __ __ __ __ __ __ __ __ __ __
 72
    65
 73
     2
 40
0.075
 49
0.05
 74
     0
 49
-0.025
 74
     0
  0
LTYPE
  5
5F
330
5
100
AcDbSymbolTableRecord
100
AcDbLinetypeTableRecord
  2
PHANTOM
 70
     0
  3
Phantom ______  __  __  ______  __  __  ______
 72
    65
 73
     6
 40
0.5
 49
0.25
 74
     0
 49
-0.05
 74
     0
 49
0.05
 74
     0
 49
-0.05
 74
     0
 49
0.05
 74
     0
 49
-0.05
 74
     0
  0
LTYPE
  5
60
330
5
100
AcDbSymbolTableRecord
100
AcDbLinetypeTableRecord
  2
CENTER
 70
     0
  3
Center ____ _ ____ _ ____ _ ____ _ ____ _ ____
 72
    65
 73
     4
 40
0.4
 49
0.25
 74
     0
 49
-0.05
 74
     0
 49
0.05
 74
     0
 49
-0.05
 74
     0
  0
LTYPE
  5
61
330
5
100
AcDbSymbolTableRecord
100
AcDbLinetypeTableRecord
  2
CENTERX2
 70
     0
  3
Center (2x) ________  __  ________  __  _____
 72
    65
 73
     4
 40
0.8
 49
0.5
 74
     0
 49
-0.1
 74
     0
 49
0.1
 74
     0
 49
-0.1
 74
     0
  0
LTYPE
  5
62
330
5
100
AcDbSymbolTableRecord
100
AcDbLinetypeTableRecord
  2
DOT2
 70
     0
  3
Dot (.5x) ........................................
 72
    65
 73
     2
 40
0.025
 49
0.0
 74
     0
 49
-0.025
 74
     0
  0
ENDTAB
  0
TABLE
  2
LAYER
  5
2
330
0
100
AcDbSymbolTable
 70
     1
  0
LAYER
  5
10
330
2
100
AcDbSymbolTableRecord
100
AcDbLayerTableRecord
  2
0
 70
     0
 62
     7
  6
Continuous
370
    -3
390
F
  0
ENDTAB
  0
TABLE
  2
STYLE
  5
3
330
0
100
AcDbSymbolTable
 70
     1
  0
STYLE
  5
11
330
3
100
AcDbSymbolTableRecord
100
AcDbTextStyleTableRecord
  2
Standard
 70
     0
 40
0.0
 41
1.0
 50
0.0
 71
     0
 42
0.1377952756
  3
txt
  4

  0
ENDTAB
  0
TABLE
  2
VIEW
  5
6
330
0
100
AcDbSymbolTable
 70
     0
  0
ENDTAB
  0
TABLE
  2
UCS
  5
7
330
0
100
AcDbSymbolTable
 70
     0
  0
ENDTAB
  0
TABLE
  2
APPID
  5
9
330
0
100
AcDbSymbolTable
 70
     1
  0
APPID
  5
12
330
9
100
AcDbSymbolTableRecord
100
AcDbRegAppTableRecord
  2
ACAD
 70
     0
  0
ENDTAB
  0
TABLE
  2
DIMSTYLE
  5
A
330
0
100
AcDbSymbolTable
 70
     1
100
AcDbDimStyleTable
  0
DIMSTYLE
105
27
330
A
100
AcDbSymbolTableRecord
100
AcDbDimStyleTableRecord
  2
Standard
 70
     0
178
     0
340
11
  0
ENDTAB
  0
TABLE
  2
BLOCK_RECORD
  5
1
330
0
100
AcDbSymbolTable
 70
     1
  0
BLOCK_RECORD
  5
1F
330
1
100
AcDbSymbolTableRecord
100
AcDbBlockTableRecord
  2
*Model_Space
340
22
  0
BLOCK_RECORD
  5
1B
330
1
100
AcDbSymbolTableRecord
100
AcDbBlockTableRecord
  2
*Paper_Space
340
1E
  0
BLOCK_RECORD
  5
23
330
1
100
AcDbSymbolTableRecord
100
AcDbBlockTableRecord
  2
*Paper_Space0
340
26
  0
ENDTAB
  0
ENDSEC
  0
SECTION
  2
BLOCKS
  0
BLOCK
  5
20
330
1F
100
AcDbEntity
  8
0
100
AcDbBlockBegin
  2
*Model_Space
 70
     0
 10
0.0
 20
0.0
 30
0.0
  3
*Model_Space
  1

  0
ENDBLK
  5
21
330
1F
100
AcDbEntity
  8
0
100
AcDbBlockEnd
  0
BLOCK
  5
1C
330
1B
100
AcDbEntity
 67
     1
  8
0
100
AcDbBlockBegin
  2
*Paper_Space
 70
     0
 10
0.0
 20
0.0
 30
0.0
  3
*Paper_Space
  1

  0
ENDBLK
  5
1D
330
1B
100
AcDbEntity
 67
     1
  8
0
100
AcDbBlockEnd
  0
BLOCK
  5
24
330
23
100
AcDbEntity
  8
0
100
AcDbBlockBegin
  2
*Paper_Space0
 70
     0
 10
0.0
 20
0.0
 30
0.0
  3
*Paper_Space0
  1

  0
SPLINE
  5
304
330
23
100
AcDbEntity
  8
0
  6
Continuous
 62
     7
370
    25
100
AcDbSpline
210
0.0
220
0.0
230
1.0
 70
     8
 71
     3
 72
    31
 73
    27
 74
     0
 42
0.00000001
 43
0.00000001
 40
0.0
 40
0.0
 40
0.0
 40
0.0
 40
0.0431256223673581
 40
0.0859920462888179
 40
0.1288398981523119
 40
0.1729185784203538
 40
0.2184152326474206
 40
0.2653291226805455
 40
0.3014557337689363
 40
0.3383799668476278
 40
0.3755446495781634
 40
0.4123551936999843
 40
0.4608706178219126
 40
0.5087614763602345
 40
0.5560307237729047
 40
0.6026809336665597
 40
0.6487214190748477
 40
0.6948562442194147
 40
0.7415623358675889
 40
0.7888423160332971
 40
0.8366984545291364
 40
0.8729815304742592
 40
0.9095911060737661
 40
0.9465375751205767
 40
0.9838986273426779
 40
1.0
 40
1.0
 40
1.0
 40
1.0
 10
-10.77201745220254
 20
-7.000000000000003
 30
0.0
 10
-10.709511757437
 20
-6.996842969711551
 30
0.0
 10
-10.58487604663364
 20
-6.990547883871709
 30
0.0
 10
-10.40385220028808
 20
-6.944100293936927
 30
0.0
 10
-10.22870165499527
 20
-6.874578951328496
 30
0.0
 10
-10.05766342823605
 20
-6.775454414714577
 30
0.0
 10
-9.892420559396252
 20
-6.646059095039264
 30
0.0
 10
-9.749937747312046
 20
-6.49930872536913
 30
0.0
 10
-9.630015462229524
 20
-6.343701560108827
 30
0.0
 10
-9.531420586250361
 20
-6.187006889565393
 30
0.0
 10
-9.445086169601659
 20
-6.016988662121799
 30
0.0
 10
-9.364913747382582
 20
-5.817585513820712
 30
0.0
 10
-9.297787850920155
 20
-5.5885562022749
 30
0.0
 10
-9.251178469042058
 20
-5.331310218623871
 30
0.0
 10
-9.231089027332484
 20
-5.071762520084695
 30
0.0
 10
-9.236839383613423
 20
-4.814438616033963
 30
0.0
 10
-9.267458532102534
 20
-4.56223843441695
 30
0.0
 10
-9.32241777679758
 20
-4.317019398768207
 30
0.0
 10
-9.401683442937335
 20
-4.080826019105507
 30
0.0
 10
-9.504977356624705
 20
-3.857217311733352
 30
0.0
 10
-9.620719716524096
 20
-3.668051367780095
 30
0.0
 10
-9.741657413371469
 20
-3.511753962637661
 30
0.0
 10
-9.862008105107003
 20
-3.384309666859454
 30
0.0
 10
-9.993265342060498
 20
-3.273518665668566
 30
0.0
 10
-10.10593185629701
 20
-3.193954579061916
 30
0.0
 10
-10.17685425719167
 20
-3.158945611546891
 30
0.0
 10
-10.19821408157548
 20
-3.148401899143672
 30
0.0
  0
SPLINE
  5
306
330
23
100
AcDbEntity
  8
0
  6
Continuous
 62
     7
370
    25
100
AcDbSpline
210
0.0
220
0.0
230
1.0
 70
     8
 71
     3
 72
    26
 73
    22
 74
     0
 42
0.00000001
 43
0.00000001
 40
0.0
 40
0.0
 40
0.0
 40
0.0
 40
0.0023727930593518
 40
0.0574100115418215
 40
0.1125162664031398
 40
0.1677249570626366
 40
0.2230569727681274
 40
0.2785200657119881
 40
0.3341103636717172
 40
0.3898153100098874
 40
0.4456171468778108
 40
0.5014961697395323
 40
0.5574332680783477
 40
0.6134115828868167
 40
0.6694173495232363
 40
0.7254401175377917
 40
0.7814725646905998
 40
0.8375092000845875
 40
0.8935481374922419
 40
0.9495891964619049
 40
1.0
 40
1.0
 40
1.0
 40
1.0
 10
-11.34771522566357
 20
-3.023757290530786
 30
0.0
 10
-11.34946930577721
 20
-3.024019500044232
 30
0.0
 10
-11.39190948368167
 20
-3.03036369054752
 30
0.0
 10
-11.47372123463965
 20
-3.054162332186773
 30
0.0
 10
-11.59209045726871
 20
-3.095888227931234
 30
0.0
 10
-11.70729779824925
 20
-3.150864902376924
 30
0.0
 10
-11.81884896250619
 20
-3.216980270555745
 30
0.0
 10
-11.92600369934919
 20
-3.294335384756361
 30
0.0
 10
-12.02810408969601
 20
-3.382341707653313
 30
0.0
 10
-12.12449673580678
 20
-3.480498667812818
 30
0.0
 10
-12.21456552212381
 20
-3.588186783682391
 30
0.0
 10
-12.29773396979854
 20
-3.704729667058257
 30
0.0
 10
-12.37347347849596
 20
-3.829386527363009
 30
0.0
 10
-12.44130793881924
 20
-3.961364568067042
 30
0.0
 10
-12.50081471576094
 20
-4.099826004610015
 30
0.0
 10
-12.55163294085685
 20
-4.243895846310562
 30
0.0
 10
-12.59343795271947
 20
-4.392667574204722
 30
0.0
 10
-12.62603868723618
 20
-4.545210844392355
 30
0.0
 10
-12.64901646282247
 20
-4.700575199783147
 30
0.0
 10
-12.66260118069478
 20
-4.852535133584367
 30
0.0
 10
-12.66420560580482
 20
-4.952609358255605
 30
0.0
 10
-12.66496538921404
 20
-5.0
 30
0.0
  0
SPLINE
  5
307
330
23
100
AcDbEntity
  8
0
  6
Continuous
 62
     7
370
    25
100
AcDbSpline
210
0.0
220
0.0
230
1.0
 70
     8
 71
     3
 72
    26
 73
    22
 74
     0
 42
0.00000001
 43
0.00000001
 40
0.0
 40
0.0
 40
0.0
 40
0.0
 40
0.0299926107233132
 40
0.0863586076869116
 40
0.1427417641701307
 40
0.1991333273003089
 40
0.2555344599317613
 40
0.3119453445140498
 40
0.3683646912460563
 40
0.4247879521560715
 40
0.4812079646750148
 40
0.537614558065066
 40
0.5939938410380076
 40
0.6503281349381468
 40
0.7065964722506934
 40
0.7627759088480436
 40
0.8188438212522171
 40
0.8747811500282976
 40
0.9305762133425455
 40
0.9862283429226273
 40
1.0
 40
1.0
 40
1.0
 40
1.0
 10
-12.66496538921404
 20
-5.0
 30
0.0
 10
-12.6646899346586
 20
-5.028028624521084
 30
0.0
 10
-12.6638968102418
 20
-5.108732268873672
 30
0.0
 10
-12.65513620770639
 20
-5.241830687094432
 30
0.0
 10
-12.63562494250855
 20
-5.398030398881393
 30
0.0
 10
-12.60646465764149
 20
-5.551801661618605
 30
0.0
 10
-12.56799036771777
 20
-5.702178650281271
 30
0.0
 10
-12.52037765126259
 20
-5.84823018935076
 30
0.0
 10
-12.46391347008556
 20
-5.989044378686817
 30
0.0
 10
-12.39892393017415
 20
-6.123735724821866
 30
0.0
 10
-12.3257937893178
 20
-6.251449401163343
 30
0.0
 10
-12.24496103938752
 20
-6.37136751990564
 30
0.0
 10
-12.15691842631127
 20
-6.482713779906955
 30
0.0
 10
-12.06221356868907
 20
-6.58476268665767
 30
0.0
 10
-11.96144686536742
 20
-6.676836591620027
 30
0.0
 10
-11.85527414600622
 20
-6.758354220964667
 30
0.0
 10
-11.74438281356818
 20
-6.828691859323913
 30
0.0
 10
-11.62955464095763
 20
-6.887742785774249
 30
0.0
 10
-11.5113920230916
 20
-6.933875057456198
 30
0.0
 10
-11.42131577819625
 20
-6.962130480133551
 30
0.0
 10
-11.37041487082312
 20
-6.97099323344394
 30
0.0
 10
-11.36031761345615
 20
-6.972751345543964
 30
0.0
  0
SPLINE
  5
30C
330
23
100
AcDbEntity
  8
0
  6
Continuous
 62
     7
370
    25
100
AcDbSpline
210
0.0
220
0.0
230
1.0
 70
     8
 71
     3
 72
     9
 73
     5
 74
     0
 42
0.00000001
 43
0.00000001
 40
0.0
 40
0.0
 40
0.0
 40
0.0
 40
0.6195973808625478
 40
1.0
 40
1.0
 40
1.0
 40
1.0
 10
-11.44788369720432
 20
-3.048769868810675
 30
0.0
 10
-11.46627055669956
 20
-3.042858653043316
 30
0.0
 10
-11.49594605253469
 20
-3.033318238654976
 30
0.0
 10
-11.52633275977807
 20
-3.028347906282784
 30
0.0
 10
-11.53789194280042
 20
-3.026457178830421
 30
0.0
  0
SPLINE
  5
30E
330
23
100
AcDbEntity
  8
0
  6
Continuous
 62
     7
370
    25
100
AcDbSpline
210
0.0
220
0.0
230
1.0
 70
     8
 71
     3
 72
    39
 73
    35
 74
     0
 42
0.00000001
 43
0.00000001
 40
0.0
 40
0.0
 40
0.0
 40
0.0
 40
0.035808311210148
 40
0.0752360644426241
 40
0.1162078945297165
 40
0.1573741087658956
 40
0.198677199026341
 40
0.2401166629191984
 40
0.2816914953853509
 40
0.3125498695057309
 40
0.3374882168259221
 40
0.3564854307270108
 40
0.3695526706178529
 40
0.3832270887893138
 40
0.3993771941873078
 40
0.4198486069268857
 40
0.4446402422245121
 40
0.4737508088447587
 40
0.5070066005123968
 40
0.5399223365722063
 40
0.5849368660157233
 40
0.6247442909783284
 40
0.6593439837761276
 40
0.6887350484786199
 40
0.7148429223243934
 40
0.7395853710439076
 40
0.7632503866167586
 40
0.7906692626711727
 40
0.8235689741551343
 40
0.8619524214853382
 40
0.9058231116601341
 40
0.9530579250925576
 40
0.9999736652846131
 40
1.0
 40
1.0
 40
1.0
 40
1.0
 10
-12.27593414535642
 20
-3.010757785297597
 30
0.0
 10
-12.32536865316751
 20
-3.019042667151585
 30
0.0
 10
-12.42923442314302
 20
-3.036449852355271
 30
0.0
 10
-12.58411118422242
 20
-3.089317912984332
 30
0.0
 10
-12.74015455104131
 20
-3.16419584392836
 30
0.0
 10
-12.89133341706197
 20
-3.26305853727927
 30
0.0
 10
-13.0337666290122
 20
-3.383186377763
 30
0.0
 10
-13.16557931649336
 20
-3.523531420785588
 30
0.0
 10
-13.2746512078691
 20
-3.668676940138905
 30
0.0
 10
-13.35817866847296
 20
-3.803780129330069
 30
0.0
 10
-13.41620751899062
 20
-3.913430816646521
 30
0.0
 10
-13.45656298267864
 20
-4.00019673610679
 30
0.0
 10
-13.48661889248152
 20
-4.071529639837404
 30
0.0
 10
-13.51293563595515
 20
-4.139639245247167
 30
0.0
 10
-13.54132602167586
 20
-4.221026145727124
 30
0.0
 10
-13.57221131905585
 20
-4.322505172648624
 30
0.0
 10
-13.60384913810189
 20
-4.448141854658896
 30
0.0
 10
-13.63272382173563
 20
-4.598499098681309
 30
0.0
 10
-13.65365540436291
 20
-4.765790712758895
 30
0.0
 10
-13.66478350146061
 20
-4.963009344644155
 30
0.0
 10
-13.65979976455258
 20
-5.172596848962994
 30
0.0
 10
-13.63635756735595
 20
-5.382920589078154
 30
0.0
 10
-13.60213383354053
 20
-5.562116094324912
 30
0.0
 10
-13.56236951079277
 20
-5.713759659787847
 30
0.0
 10
-13.5193541496384
 20
-5.845028756756006
 30
0.0
 10
-13.47313704059708
 20
-5.963138999341676
 30
0.0
 10
-13.42023822371547
 20
-6.079174113560654
 30
0.0
 10
-13.35500409832162
 20
-6.20223645479809
 30
0.0
 10
-13.26962062815387
 20
-6.338494139467006
 30
0.0
 10
-13.15872302932402
 20
-6.484317128425112
 30
0.0
 10
-13.02113280912535
 20
-6.630462725969459
 30
0.0
 10
-12.85990955841442
 20
-6.758437352891207
 30
0.0
 10
-12.74441906936175
 20
-6.836682191786463
 30
0.0
 10
-12.68285468848933
 20
-6.862341768588013
 30
0.0
 10
-12.68282015059446
 20
-6.862356163726131
 30
0.0
  0
SPLINE
  5
311
330
23
100
AcDbEntity
  8
0
  6
Continuous
 62
     7
370
    25
100
AcDbSpline
210
0.0
220
0.0
230
1.0
 70
     8
 71
     3
 72
    31
 73
    27
 74
     0
 42
0.00000001
 43
0.00000001
 40
0.0
 40
0.0
 40
0.0
 40
0.0
 40
0.043125622367298
 40
0.0859920462886889
 40
0.128839898152113
 40
0.1729185784206032
 40
0.2184152326475135
 40
0.2653291226804364
 40
0.3014557337692819
 40
0.3383799668479361
 40
0.375544649578183
 40
0.4123551937001584
 40
0.4608706178219867
 40
0.5087614763604017
 40
0.556030723773086
 40
0.602680933666762
 40
0.6487214190750538
 40
0.6948562442195685
 40
0.7415623358678195
 40
0.788842316033653
 40
0.8366984545296627
 40
0.8729815304743581
 40
0.9095911060740862
 40
0.9465375751209426
 40
0.9838986273431991
 40
1.0
 40
1.0
 40
1.0
 40
1.0
 10
10.77201745220254
 20
-2.999999999999997
 30
0.0
 10
10.70951175743722
 20
-3.003157030288537
 30
0.0
 10
10.58487604663432
 20
-3.009452116128558
 30
0.0
 10
10.40385220028832
 20
-3.055899706062745
 30
0.0
 10
10.22870165499509
 20
-3.125421048671382
 30
0.0
 10
10.05766342823657
 20
-3.224545585285223
 30
0.0
 10
9.892420559396149
 20
-3.353940904960728
 30
0.0
 10
9.74993774731179
 20
-3.500691274631119
 30
0.0
 10
9.630015462229382
 20
-3.656298439891217
 30
0.0
 10
9.531420586249965
 20
-3.812993110434957
 30
0.0
 10
9.445086169601783
 20
-3.983011337878512
 30
0.0
 10
9.364913747382731
 20
-4.18241448617903
 30
0.0
 10
9.297787850920018
 20
-4.411443797724913
 30
0.0
 10
9.25117846904223
 20
-4.668689781375967
 30
0.0
 10
9.23108902733253
 20
-4.92823747991524
 30
0.0
 10
9.236839383613232
 20
-5.185561383965985
 30
0.0
 10
9.267458532102635
 20
-5.437761565582801
 30
0.0
 10
9.322417776797593
 20
-5.682980601231518
 30
0.0
 10
9.40168344293705
 20
-5.919173980894581
 30
0.0
 10
9.50497735662504
 20
-6.142782688267072
 30
0.0
 10
9.620719716524118
 20
-6.331948632219735
 30
0.0
 10
9.741657413371689
 20
-6.488246037362575
 30
0.0
 10
9.862008105106902
 20
-6.615690333140244
 30
0.0
 10
9.993265342060676
 20
-6.726481334331649
 30
0.0
 10
10.1059318562965
 20
-6.806045420937914
 30
0.0
 10
10.17685425719095
 20
-6.841054388452751
 30
0.0
 10
10.19821408157415
 20
-6.851598100855651
 30
0.0
  0
SPLINE
  5
313
330
23
100
AcDbEntity
  8
0
  6
Continuous
 62
     7
370
    25
100
AcDbSpline
210
0.0
220
0.0
230
1.0
 70
     8
 71
     3
 72
    25
 73
    21
 74
     0
 42
0.00000001
 43
0.00000001
 40
0.0
 40
0.0
 40
0.0
 40
0.0
 40
0.0547881839155202
 40
0.110047717618274
 40
0.1654099720458473
 40
0.2208958945498143
 40
0.2765132588853677
 40
0.3322581820593833
 40
0.3881180725079483
 40
0.4440751229886834
 40
0.5001095741571652
 40
0.5562022623405185
 40
0.6123362816377167
 40
0.6684978291205151
 40
0.7246764252710542
 40
0.7808647274824911
 40
0.8370572295847731
 40
0.8932520401037852
 40
0.9494489780859696
 40
0.9999999999999999
 40
0.9999999999999999
 40
0.9999999999999999
 40
0.9999999999999999
 10
11.35385341429383
 20
-6.975222369611789
 30
0.0
 10
11.39384807074343
 20
-6.965898964727826
 30
0.0
 10
11.4741814628119
 20
-6.94717194450951
 30
0.0
 10
11.59204379777954
 20
-6.903724980141281
 30
0.0
 10
11.70731034048945
 20
-6.849239068697797
 30
0.0
 10
11.81884559005751
 20
-6.782991772945787
 30
0.0
 10
11.9260046061411
 20
-6.705672132252174
 30
0.0
 10
12.02810384594321
 20
-6.617656271715318
 30
0.0
 10
12.12449680130043
 20
-6.519501875107983
 30
0.0
 10
12.21456550453559
 20
-6.411813070516666
 30
0.0
 10
12.29773397451943
 20
-6.29527037207596
 30
0.0
 10
12.37347347722947
 20
-6.170613462137896
 30
0.0
 10
12.44130793915893
 20
-6.038635434748485
 30
0.0
 10
12.5008147156699
 20
-5.900173994635082
 30
0.0
 10
12.55163294088128
 20
-5.756104153891691
 30
0.0
 10
12.59343795271295
 20
-5.607332425740969
 30
0.0
 10
12.62603868723794
 20
-5.454789155622082
 30
0.0
 10
12.64901646282202
 20
-5.299424800212868
 30
0.0
 10
12.66260118069487
 20
-5.147464866416442
 30
0.0
 10
12.66420560580485
 20
-5.047390641744644
 30
0.0
 10
12.66496538921404
 20
-5.0
 30
0.0
  0
SPLINE
  5
314
330
23
100
AcDbEntity
  8
0
  6
Continuous
 62
     7
370
    25
100
AcDbSpline
210
0.0
220
0.0
230
1.0
 70
     8
 71
     3
 72
    26
 73
    22
 74
     0
 42
0.00000001
 43
0.00000001
 40
0.0
 40
0.0
 40
0.0
 40
0.0
 40
0.0299337377246201
 40
0.0861890929272811
 40
0.1424615739668529
 40
0.1987424451518356
 40
0.2550328670539589
 40
0.3113330217646496
 40
0.3676416220145626
 40
0.4239541287592792
 40
0.4802633934892452
 40
0.5365592654309495
 40
0.5928278805636097
 40
0.6490515949332922
 40
0.7052094821826702
 40
0.7612786432215619
 40
0.8172364989799686
 40
0.8730640274351029
 40
0.9287495696836402
 40
0.9842924587650542
 40
1.0
 40
1.0
 40
1.0
 40
1.0
 10
12.66496538921404
 20
-5.0
 30
0.0
 10
12.66468993465861
 20
-4.971971375478913
 30
0.0
 10
12.6638968102418
 20
-4.891267731126311
 30
0.0
 10
12.65513620770637
 20
-4.758169312905664
 30
0.0
 10
12.6356249425086
 20
-4.601969601118249
 30
0.0
 10
12.6064646576413
 20
-4.448198338382745
 30
0.0
 10
12.56799036771847
 20
-4.297821349713693
 30
0.0
 10
12.52037765125994
 20
-4.15176981066804
 30
0.0
 10
12.46391347009546
 20
-4.010955621243017
 30
0.0
 10
12.39892393013717
 20
-3.876264275440012
 30
0.0
 10
12.32579378945583
 20
-3.748550597859477
 30
0.0
 10
12.24496103887265
 20
-3.628632483739537
 30
0.0
 10
12.15691842823118
 20
-3.517286206500921
 30
0.0
 10
12.06221356153373
 20
-3.4152373639996
 30
0.0
 10
11.96144689201969
 20
-3.323163219691788
 30
0.0
 10
11.85527404679279
 20
-3.241646481429902
 30
0.0
 10
11.74438318267651
 20
-3.171305527525324
 30
0.0
 10
11.6295532683781
 20
-3.112266931582464
 30
0.0
 10
11.51139712601908
 20
-3.066088815700033
 30
0.0
 10
11.41988773936975
 20
-3.037519429282341
 30
0.0
 10
11.36753777388111
 20
-3.02845539419843
 30
0.0
 10
11.35599694194635
 20
-3.026457178830421
 30
0.0
  0
SPLINE
  5
318
330
23
100
AcDbEntity
  8
0
  6
Continuous
 62
     7
370
    25
100
AcDbSpline
210
0.0
220
0.0
230
1.0
 70
     8
 71
     3
 72
     9
 73
     5
 74
     0
 42
0.00000001
 43
0.00000001
 40
0.0
 40
0.0
 40
0.0
 40
0.0
 40
0.0518506009610754
 40
0.9999999999999999
 40
0.9999999999999999
 40
0.9999999999999999
 40
0.9999999999999999
 10
11.54617365908324
 20
-3.023757290530786
 30
0.0
 10
11.54441936272706
 20
-3.024018241238735
 30
0.0
 10
11.51058568821468
 20
-3.029050983446442
 30
0.0
 10
11.47743602284298
 20
-3.039172838255912
 30
0.0
 10
11.44600518754247
 20
-3.048769868810675
 30
0.0
  0
SPLINE
  5
319
330
23
100
AcDbEntity
  8
0
  6
Continuous
 62
     7
370
    25
100
AcDbSpline
210
0.0
220
0.0
230
1.0
 70
     8
 71
     3
 72
     9
 73
     5
 74
     0
 42
0.00000001
 43
0.00000001
 40
0.0
 40
0.0
 40
0.0
 40
0.0
 40
0.650521611638573
 40
0.9999999999999999
 40
0.9999999999999999
 40
0.9999999999999999
 40
0.9999999999999999
 10
11.44788369720432
 20
-6.951230131189325
 30
0.0
 10
11.46626601429368
 20
-6.957170535419127
 30
0.0
 10
11.49452382581058
 20
-6.966302290803605
 30
0.0
 10
11.52345903945819
 20
-6.971081214864916
 30
0.0
 10
11.53357127129065
 20
-6.972751345543964
 30
0.0
  0
SPLINE
  5
31B
330
23
100
AcDbEntity
  8
0
  6
Continuous
 62
     7
370
    25
100
AcDbSpline
210
0.0
220
0.0
230
1.0
 70
     8
 71
     3
 72
    39
 73
    35
 74
     0
 42
0.00000001
 43
0.00000001
 40
0.0
 40
0.0
 40
0.0
 40
0.0
 40
0.0358083112096992
 40
0.0752360644423421
 40
0.1162078945292496
 40
0.1573741087654608
 40
0.1986771990258724
 40
0.2401166629186151
 40
0.2816914953851671
 40
0.312549869505395
 40
0.3374882168255715
 40
0.3564854307266779
 40
0.3695526706175176
 40
0.3832270887889748
 40
0.3993771941869613
 40
0.419848606926535
 40
0.4446402422241687
 40
0.4737508088444298
 40
0.5070066005120755
 40
0.5399223365718885
 40
0.5849368660154118
 40
0.6247442909780223
 40
0.6593439837758188
 40
0.6887350484783178
 40
0.7148429223241143
 40
0.7395853710436485
 40
0.7632503866164894
 40
0.7906692626709328
 40
0.8235689741550496
 40
0.8619524214848743
 40
0.9058231116598249
 40
0.9530579250922568
 40
0.9999736652844621
 40
1.0
 40
1.0
 40
1.0
 40
1.0
 10
12.27593414535826
 20
-6.989242214702238
 30
0.0
 10
12.32536865316872
 20
-6.980957332848249
 30
0.0
 10
12.42923442314381
 20
-6.963550147644423
 30
0.0
 10
12.58411118422258
 20
-6.910682087015822
 30
0.0
 10
12.74015455104137
 20
-6.835804156071488
 30
0.0
 10
12.89133341706181
 20
-6.736941462720822
 30
0.0
 10
13.03376662901189
 20
-6.616813622237241
 30
0.0
 10
13.16557931649328
 20
-6.476468579214395
 30
0.0
 10
13.27465120786929
 20
-6.331323059861139
 30
0.0
 10
13.35817866847303
 20
-6.196219870669346
 30
0.0
 10
13.41620751899078
 20
-6.086569183353353
 30
0.0
 10
13.45656298267887
 20
-5.999803263893149
 30
0.0
 10
13.4866188924817
 20
-5.9284703601625
 30
0.0
 10
13.51293563595522
 20
-5.860360754752715
 30
0.0
 10
13.54132602167586
 20
-5.778973854272771
 30
0.0
 10
13.57221131905592
 20
-5.677494827351341
 30
0.0
 10
13.60384913810191
 20
-5.551858145341042
 30
0.0
 10
13.63272382173563
 20
-5.401500901318609
 30
0.0
 10
13.65365540436292
 20
-5.234209287241013
 30
0.0
 10
13.6647835014606
 20
-5.036990655355762
 30
0.0
 10
13.65979976455257
 20
-4.82740315103695
 30
0.0
 10
13.63635756735595
 20
-4.617079410921803
 30
0.0
 10
13.60213383354049
 20
-4.43788390567508
 30
0.0
 10
13.56236951079273
 20
-4.286240340212136
 30
0.0
 10
13.51935414963839
 20
-4.154971243243885
 30
0.0
 10
13.47313704059686
 20
-4.036861000658316
 30
0.0
 10
13.42023822371529
 20
-3.920825886439281
 30
0.0
 10
13.35500409832158
 20
-3.797763545201378
 30
0.0
 10
13.26962062815371
 20
-3.661505860533082
 30
0.0
 10
13.15872302932419
 20
-3.515682871574954
 30
0.0
 10
13.02113280912542
 20
-3.369537274030598
 30
0.0
 10
12.85990955841563
 20
-3.241562647109703
 30
0.0
 10
12.74441906935901
 20
-3.163317808211182
 30
0.0
 10
12.68285468848861
 20
-3.137658231411703
 30
0.0
 10
12.68282015059354
 20
-3.137643836273498
 30
0.0
  0
SPLINE
  5
31C
330
23
100
AcDbEntity
  8
0
  6
Continuous
 62
     7
370
    25
100
AcDbSpline
210
0.0
220
0.0
230
1.0
 70
     8
 71
     3
 72
     9
 73
     5
 74
     0
 42
0.00000001
 43
0.00000001
 40
0.0
 40
0.0
 40
0.0
 40
0.0
 40
0.9588946722765969
 40
1.0
 40
1.0
 40
1.0
 40
1.0
 10
12.12187143254425
 20
-7.000000000000003
 30
0.0
 10
12.1716089028568
 20
-6.999794328720879
 30
0.0
 10
12.22347848952836
 20
-6.999579840847423
 30
0.0
 10
12.27386307063948
 20
-6.989650368900726
 30
0.0
 10
12.27593414535826
 20
-6.989242214702238
 30
0.0
  0
SPLINE
  5
33D
330
23
100
AcDbEntity
  8
0
  6
Continuous
 62
     7
370
    25
100
AcDbSpline
210
0.0
220
0.0
230
1.0
 70
    11
 71
     3
 72
    70
 73
    66
 74
     0
 42
0.00000001
 43
0.00000001
 40
0.0
 40
0.0
 40
0.0
 40
0.0
 40
0.03125
 40
0.03125
 40
0.0625
 40
0.0625
 40
0.09375
 40
0.09375
 40
0.125
 40
0.125
 40
0.15625
 40
0.15625
 40
0.1875
 40
0.1875
 40
0.21875
 40
0.21875
 40
0.25
 40
0.25
 40
0.28125
 40
0.28125
 40
0.3125
 40
0.3125
 40
0.34375
 40
0.34375
 40
0.375
 40
0.375
 40
0.40625
 40
0.40625
 40
0.4375
 40
0.4375
 40
0.46875
 40
0.46875
 40
0.5
 40
0.5
 40
0.53125
 40
0.53125
 40
0.5625
 40
0.5625
 40
0.59375
 40
0.59375
 40
0.625
 40
0.625
 40
0.65625
 40
0.65625
 40
0.6875
 40
0.6875
 40
0.71875
 40
0.71875
 40
0.75
 40
0.75
 40
0.78125
 40
0.78125
 40
0.8125
 40
0.8125
 40
0.84375
 40
0.84375
 40
0.875
 40
0.875
 40
0.90625
 40
0.90625
 40
0.9375
 40
0.9375
 40
0.96875
 40
0.96875
 40
1.0
 40
1.0
 40
1.0
 40
1.0
 10
-11.64922455489046
 20
-5.000000000000002
 30
0.0
 10
-11.64922455489045
 20
-4.918187691325175
 30
0.0
 10
-11.6430520676401
 20
-4.836377405582823
 30
0.0
 10
-11.61859871920782
 20
-4.675896789376857
 30
0.0
 10
-11.60031846267734
 20
-4.597230427035164
 30
0.0
 10
-11.5523514942852
 20
-4.446060992052106
 30
0.0
 10
-11.52266596847989
 20
-4.37356165729969
 30
0.0
 10
-11.45302872382022
 20
-4.237512760151301
 30
0.0
 10
-11.41307872685042
 20
-4.173966561764193
 30
0.0
 10
-11.3244473261823
 20
-4.058266485269437
 30
0.0
 10
-11.27576811402869
 20
-4.006115468015686
 30
0.0
 10
-11.17154861237222
 20
-3.915210501227949
 30
0.0
 10
-11.11601089985618
 20
-3.87645879945403
 30
0.0
 10
-11.00020839421971
 20
-3.813842369267752
 30
0.0
 10
-10.9399464644866
 20
-3.789979189140288
 30
0.0
 10
-10.81701118021371
 20
-3.758057609851636
 30
0.0
 10
-10.75434086542992
 20
-3.749999999999998
 30
0.0
 10
-10.62899713655352
 20
-3.749999999999998
 30
0.0
 10
-10.56632682176973
 20
-3.7580576098522
 30
0.0
 10
-10.44339153749684
 20
-3.78997918913972
 30
0.0
 10
-10.38312960776547
 20
-3.813842369267752
 30
0.0
 10
-10.26732710212553
 20
-3.87645879945403
 30
0.0
 10
-10.21178938960985
 20
-3.915210501228194
 30
0.0
 10
-10.10756988795613
 20
-4.006115468015436
 30
0.0
 10
-10.05889067580146
 20
-4.05826648526903
 30
0.0
 10
-9.970259275132717
 20
-4.173966561764599
 30
0.0
 10
-9.930309278163472
 20
-4.237512760150828
 30
0.0
 10
-9.860672033503315
 20
-4.373561657300166
 30
0.0
 10
-9.830986507698418
 20
-4.446060992052709
 30
0.0
 10
-9.783019539305936
 20
-4.597230427034561
 30
0.0
 10
-9.764739282773958
 20
-4.675896789376861
 30
0.0
 10
-9.740285934345005
 20
-4.836377405582814
 30
0.0
 10
-9.734113447092989
 20
-4.918187691325743
 30
0.0
 10
-9.734113447092987
 20
-5.081812308674257
 30
0.0
 10
-9.740285934343264
 20
-5.163622594417751
 30
0.0
 10
-9.7647392827757
 20
-5.324103210622571
 30
0.0
 10
-9.783019539305933
 20
-5.402769572965435
 30
0.0
 10
-9.830986507698416
 20
-5.553939007947287
 30
0.0
 10
-9.860672033503322
 20
-5.626438342699825
 30
0.0
 10
-9.930309278163469
 20
-5.762487239849176
 30
0.0
 10
-9.970259275134458
 20
-5.826033438234837
 30
0.0
 10
-10.05889067579972
 20
-5.941733514731538
 30
0.0
 10
-10.10756988795686
 20
-5.993884531984634
 30
0.0
 10
-10.21178938960911
 20
-6.084789498771732
 30
0.0
 10
-10.26732710212767
 20
-6.123541200546193
 30
0.0
 10
-10.38312960776332
 20
-6.186157630732026
 30
0.0
 10
-10.44339153749728
 20
-6.210020810859254
 30
0.0
 10
-10.5663268217693
 20
-6.241942390148823
 30
0.0
 10
-10.62899713655222
 20
-6.250000000000003
 30
0.0
 10
-10.75434086543123
 20
-6.250000000000003
 30
0.0
 10
-10.81701118021414
 20
-6.241942390147686
 30
0.0
 10
-10.93994646448617
 20
-6.210020810860395
 30
0.0
 10
-11.00020839421838
 20
-6.186157630732026
 30
0.0
 10
-11.11601089985751
 20
-6.123541200546198
 30
0.0
 10
-11.17154861237259
 20
-6.084789498771732
 30
0.0
 10
-11.27576811402832
 20
-5.993884531984634
 30
0.0
 10
-11.32444732618261
 20
-5.941733514730726
 30
0.0
 10
-11.4130787268501
 20
-5.82603343823565
 30
0.0
 10
-11.45302872382047
 20
-5.762487239849351
 30
0.0
 10
-11.52266596847963
 20
-5.626438342699655
 30
0.0
 10
-11.55235149428537
 20
-5.553939007947356
 30
0.0
 10
-11.60031846267717
 20
-5.40276957296537
 30
0.0
 10
-11.61859871920965
 20
-5.32410321062258
 30
0.0
 10
-11.64305206763827
 20
-5.163622594417746
 30
0.0
 10
-11.64922455489046
 20
-5.08181230867483
 30
0.0
 10
-11.64922455489046
 20
-5.000000000000002
 30
0.0
  0
SPLINE
  5
33E
330
23
100
AcDbEntity
  8
0
  6
Continuous
 62
     7
370
    25
100
AcDbSpline
210
0.0
220
0.0
230
1.0
 70
     8
 71
     3
 72
    10
 73
     6
 74
     0
 42
0.00000001
 43
0.00000001
 40
0.0
 40
0.0
 40
0.0
 40
0.0
 40
0.3097001857070523
 40
0.6548500928535264
 40
1.0
 40
1.0
 40
1.0
 40
1.0
 10
-10.20520347980463
 20
-3.143603937712641
 30
0.0
 10
-10.26151460078275
 20
-3.116591566485882
 30
0.0
 10
-10.38058247514331
 20
-3.059474862581901
 30
0.0
 10
-10.57160250548867
 20
-3.010361435909475
 30
0.0
 10
-10.70521246996458
 20
-3.003453811969823
 30
0.0
 10
-10.77201745220254
 20
-2.999999999999997
 30
0.0
  0
LWPOLYLINE
  5
341
330
23
100
AcDbEntity
  8
0
  6
Continuous
 62
     7
370
    25
100
AcDbPolyline
 90
       10
 70
   128
 43
0.0
 10
-11.0268134449
 20
-5.0
 10
-11.0214275358
 20
-4.9218813585
 10
-11.005442916
 20
-4.8462735145
 10
-10.9793733445
 20
-4.7756065661
 10
-10.9440567187
 20
-4.7121518074
 10
-10.9006281439
 20
-4.6579487264
 10
-10.8504834503
 20
-4.6147394548
 10
-10.7952343297
 20
-4.5839127741
 10
-10.7366565342
 20
-4.5664594792
 10
-10.691669001
 20
-4.5625
  0
LWPOLYLINE
  5
342
330
23
100
AcDbEntity
  8
0
  6
Continuous
 62
     7
370
    25
100
AcDbPolyline
 90
       10
 70
   128
 43
0.0
 10
-10.691669001
 20
-5.4375
 10
-10.7366565342
 20
-5.4335405208
 10
-10.7952343297
 20
-5.4160872259
 10
-10.8504834503
 20
-5.3852605452
 10
-10.9006281439
 20
-5.3420512736
 10
-10.9440567187
 20
-5.2878481926
 10
-10.9793733445
 20
-5.2243934339
 10
-11.005442916
 20
-5.1537264855
 10
-11.0214275358
 20
-5.0781186415
 10
-11.0268134449
 20
-5.0
  0
LWPOLYLINE
  5
344
330
23
100
AcDbEntity
  8
0
  6
Continuous
 62
     7
370
    25
100
AcDbPolyline
 90
       18
 70
   128
 43
0.0
 10
-12.1481759122
 20
-3.5030461385
 10
-12.2251842535
 20
-3.5916474037
 10
-12.3128567417
 20
-3.7093440247
 10
-12.3925819043
 20
-3.8363068207
 10
-12.4637873601
 20
-3.971624271
 10
-12.5259618944
 20
-4.1143248735
 10
-12.5786591294
 20
-4.2633841189
 10
-12.6215007292
 20
-4.417731847
 10
-12.6541791153
 20
-4.5762599288
 10
-12.6764596755
 20
-4.7378302229
 10
-12.6881824482
 20
-4.9012827468
 10
-12.6892632704
 20
-5.0654440044
 10
-12.6796943825
 20
-5.2291354113
 10
-12.6595444838
 20
-5.3911817564
 10
-12.6289582388
 20
-5.5504196392
 10
-12.5881552396
 20
-5.7057058225
 10
-12.5374284283
 20
-5.8559254399
 10
-12.4771419947
 20
-6.0
  0
LWPOLYLINE
  5
346
330
23
100
AcDbEntity
  8
0
  6
Continuous
 62
     7
370
    25
100
AcDbPolyline
 90
       26
 70
   128
 43
0.0
 10
-11.687989796
 20
-3.0625
 10
-11.8050559299
 20
-3.0685361489
 10
-11.9298908054
 20
-3.0884065135
 10
-12.0529889694
 20
-3.1220010306
 10
-12.1734666472
 20
-3.1690785109
 10
-12.2904588777
 20
-3.2293009649
 10
-12.4031257233
 20
-3.3022360296
 10
-12.5106583001
 20
-3.3873600728
 10
-12.6122845855
 20
-3.4840619523
 10
-12.7072749608
 20
-3.5916474037
 10
-12.7949474489
 20
-3.7093440247
 10
-12.8746726116
 20
-3.8363068207
 10
-12.9458780673
 20
-3.971624271
 10
-13.0080526016
 20
-4.1143248735
 10
-13.0607498367
 20
-4.2633841189
 10
-13.1035914364
 20
-4.417731847
 10
-13.1362698225
 20
-4.5762599288
 10
-13.1585503828
 20
-4.7378302229
 10
-13.1702731554
 20
-4.9012827468
 10
-13.1713539777
 20
-5.0654440044
 10
-13.1617850898
 20
-5.2291354113
 10
-13.141635191
 20
-5.3911817564
 10
-13.1110489461
 20
-5.5504196392
 10
-13.0702459469
 20
-5.7057058225
 10
-13.0195191356
 20
-5.8559254399
 10
-12.9592327019
 20
-6.0
  0
LWPOLYLINE
  5
347
330
23
100
AcDbEntity
  8
0
  6
Continuous
 62
     7
370
    25
100
AcDbPolyline
 90
       36
 70
   128
 43
0.0
 10
-11.0139576927
 20
-5.0
 10
-11.0085717836
 20
-5.0781186415
 10
-10.9925871638
 20
-5.1537264855
 10
-10.9665175923
 20
-5.2243934339
 10
-10.9312009665
 20
-5.2878481926
 10
-10.8877723917
 20
-5.3420512736
 10
-10.8376276981
 20
-5.3852605452
 10
-10.7823785775
 20
-5.4160872259
 10
-10.723800782
 20
-5.4335405208
 10
-10.6637770502
 20
-5.4370594666
 10
-10.6042365941
 20
-5.4265309616
 10
-10.5470930931
 20
-5.4022934005
 10
-10.4941831863
 20
-5.3651257985
 10
-10.4472074416
 20
-5.3162227529
 10
-10.4076756981
 20
-5.2571560479
 10
-10.3768585386
 20
-5.1898241359
 10
-10.3557464519
 20
-5.1163911199
 10
-10.3450179979
 20
-5.0392171976
 10
-10.3450179979
 20
-4.9607828024
 10
-10.3557464519
 20
-4.8836088801
 10
-10.3768585386
 20
-4.8101758641
 10
-10.4076756981
 20
-4.7428439521
 10
-10.4472074416
 20
-4.6837772471
 10
-10.4941831863
 20
-4.6348742015
 10
-10.5470930931
 20
-4.5977065995
 10
-10.6042365941
 20
-4.5734690384
 10
-10.6637770502
 20
-4.5629405334
 10
-10.723800782
 20
-4.5664594792
 10
-10.7823785775
 20
-4.5839127741
 10
-10.8376276981
 20
-4.6147394548
 10
-10.8877723917
 20
-4.6579487264
 10
-10.9312009665
 20
-4.7121518074
 10
-10.9665175923
 20
-4.7756065661
 10
-10.9925871638
 20
-4.8462735145
 10
-11.0085717836
 20
-4.9218813585
 10
-11.0139576927
 20
-5.0
  0
SPLINE
  5
34A
330
23
100
AcDbEntity
  8
0
  6
Continuous
 62
     7
370
    25
100
AcDbSpline
210
0.0
220
0.0
230
1.0
 70
     8
 71
     3
 72
    10
 73
     6
 74
     0
 42
0.00000001
 43
0.00000001
 40
0.0
 40
0.0
 40
0.0
 40
0.0
 40
0.3545553694814582
 40
0.7091107389629167
 40
1.0
 40
1.0
 40
1.0
 40
1.0
 10
-12.12187143254425
 20
-7.000000000000003
 30
0.0
 10
-12.18867009545887
 20
-6.996519999474968
 30
0.0
 10
-12.3222674212881
 20
-6.989559998424903
 30
0.0
 10
-12.50830928676594
 20
-6.942118742904801
 30
0.0
 10
-12.62259407468311
 20
-6.887482654634594
 30
0.0
 10
-12.67409999158616
 20
-6.86285923909838
 30
0.0
  0
SPLINE
  5
34B
330
23
100
AcDbEntity
  8
0
  6
Continuous
 62
     7
370
    25
100
AcDbSpline
210
0.0
220
0.0
230
1.0
 70
    11
 71
     3
 72
    39
 73
    35
 74
     0
 42
0.00000001
 43
0.00000001
 40
0.0
 40
0.0
 40
0.0
 40
0.0
 40
0.03125
 40
0.0625
 40
0.09375
 40
0.1249999999999999
 40
0.15625
 40
0.1875000000000002
 40
0.21875
 40
0.25
 40
0.2812500000000001
 40
0.3124999999999998
 40
0.3437500000000001
 40
0.3750000000000002
 40
0.4062499999999999
 40
0.4374999999999999
 40
0.46875
 40
0.5000000000000001
 40
0.53125
 40
0.5624999999999999
 40
0.5937499999999999
 40
0.6250000000000004
 40
0.6562499999999998
 40
0.6874999999999994
 40
0.7187499999999998
 40
0.7500000000000002
 40
0.78125
 40
0.8124999999999998
 40
0.8437500000000002
 40
0.8749999999999996
 40
0.9062500000000001
 40
0.9374999999999998
 40
0.9687499999999999
 40
1.0
 40
1.0
 40
1.0
 40
1.0
 10
11.64922455489046
 20
-5.000000000000002
 30
0.0
 10
11.64922455489046
 20
-4.918188369983103
 30
0.0
 10
11.63687937753907
 20
-4.75456510994931
 30
0.0
 10
11.58203770682135
 20
-4.518562145081797
 30
0.0
 10
11.49297966606314
 20
-4.301060566985327
 30
0.0
 10
11.37312770582642
 20
-4.110418839329868
 30
0.0
 10
11.22708766972934
 20
-3.953963216796092
 30
0.0
 10
11.06047179445894
 20
-3.83770620121666
 30
0.0
 10
10.87968303466257
 20
-3.766115484502603
 30
0.0
 10
10.69166900099172
 20
-3.741942257748696
 30
0.0
 10
10.50365496732088
 20
-3.766115484502603
 30
0.0
 10
10.32286620752451
 20
-3.837706201216665
 30
0.0
 10
10.1562503322541
 20
-3.953963216796092
 30
0.0
 10
10.01021029615702
 20
-4.110418839329868
 30
0.0
 10
9.890358335920315
 20
-4.301060566985331
 30
0.0
 10
9.801300295162086
 20
-4.518562145081797
 30
0.0
 10
9.74645862444438
 20
-4.75456510994931
 30
0.0
 10
9.727940858417291
 20
-4.999999999999996
 30
0.0
 10
9.746458624444381
 20
-5.24543489005069
 30
0.0
 10
9.801300295162088
 20
-5.481437854918204
 30
0.0
 10
9.890358335920311
 20
-5.698939433014674
 30
0.0
 10
10.01021029615703
 20
-5.889581160670128
 30
0.0
 10
10.1562503322541
 20
-6.046036783203908
 30
0.0
 10
10.32286620752451
 20
-6.162293798783336
 30
0.0
 10
10.50365496732087
 20
-6.233884515497397
 30
0.0
 10
10.69166900099172
 20
-6.2580577422513
 30
0.0
 10
10.87968303466257
 20
-6.233884515497402
 30
0.0
 10
11.06047179445894
 20
-6.162293798783336
 30
0.0
 10
11.22708766972934
 20
-6.046036783203908
 30
0.0
 10
11.37312770582642
 20
-5.889581160670133
 30
0.0
 10
11.49297966606313
 20
-5.698939433014674
 30
0.0
 10
11.58203770682135
 20
-5.481437854918204
 30
0.0
 10
11.63687937753907
 20
-5.245434890050698
 30
0.0
 10
11.64922455489046
 20
-5.081811630016899
 30
0.0
 10
11.64922455489046
 20
-5.000000000000002
 30
0.0
  0
SPLINE
  5
34C
330
23
100
AcDbEntity
  8
0
  6
Continuous
 62
     7
370
    25
100
AcDbSpline
210
0.0
220
0.0
230
1.0
 70
     8
 71
     3
 72
    10
 73
     6
 74
     0
 42
0.00000001
 43
0.00000001
 40
0.0
 40
0.0
 40
0.0
 40
0.0
 40
0.3451499071456124
 40
0.6902998142912251
 40
1.0
 40
1.0
 40
1.0
 40
1.0
 10
10.77201745220254
 20
-7.000000000000003
 30
0.0
 10
10.70521246996458
 20
-6.996546188030181
 30
0.0
 10
10.57160250548866
 20
-6.989638564090535
 30
0.0
 10
10.38058247514284
 20
-6.940525137417951
 30
0.0
 10
10.26151460078183
 20
-6.883408433513738
 30
0.0
 10
10.20520347980326
 20
-6.856396062286753
 30
0.0
  0
LWPOLYLINE
  5
34F
330
23
100
AcDbEntity
  8
0
  6
Continuous
 62
     7
370
    25
100
AcDbPolyline
 90
       10
 70
   128
 43
0.0
 10
11.0268134449
 20
-5.0
 10
11.0214275358
 20
-4.9218813585
 10
11.005442916
 20
-4.8462735145
 10
10.9793733445
 20
-4.7756065661
 10
10.9440567187
 20
-4.7121518074
 10
10.9006281439
 20
-4.6579487264
 10
10.8504834503
 20
-4.6147394548
 10
10.7952343297
 20
-4.5839127741
 10
10.7366565342
 20
-4.5664594792
 10
10.691669001
 20
-4.5625
  0
LWPOLYLINE
  5
350
330
23
100
AcDbEntity
  8
0
  6
Continuous
 62
     7
370
    25
100
AcDbPolyline
 90
       10
 70
   128
 43
0.0
 10
10.691669001
 20
-5.4375
 10
10.7366565342
 20
-5.4335405208
 10
10.7952343297
 20
-5.4160872259
 10
10.8504834503
 20
-5.3852605452
 10
10.9006281439
 20
-5.3420512736
 10
10.9440567187
 20
-5.2878481926
 10
10.9793733445
 20
-5.2243934339
 10
11.005442916
 20
-5.1537264855
 10
11.0214275358
 20
-5.0781186415
 10
11.0268134449
 20
-5.0
  0
LWPOLYLINE
  5
352
330
23
100
AcDbEntity
  8
0
  6
Continuous
 62
     7
370
    25
100
AcDbPolyline
 90
       18
 70
   128
 43
0.0
 10
12.159053175
 20
-3.5148274488
 10
12.2251842535
 20
-3.5916474037
 10
12.3128567417
 20
-3.7093440247
 10
12.3925819043
 20
-3.8363068207
 10
12.4637873601
 20
-3.971624271
 10
12.5259618944
 20
-4.1143248735
 10
12.5786591294
 20
-4.2633841189
 10
12.6215007292
 20
-4.417731847
 10
12.6541791153
 20
-4.5762599288
 10
12.6764596755
 20
-4.7378302229
 10
12.6881824482
 20
-4.9012827468
 10
12.6892632704
 20
-5.0654440044
 10
12.6796943825
 20
-5.2291354113
 10
12.6595444838
 20
-5.3911817564
 10
12.6289582388
 20
-5.5504196392
 10
12.5881552396
 20
-5.7057058225
 10
12.5374284283
 20
-5.8559254399
 10
12.4771419947
 20
-6.0
  0
LWPOLYLINE
  5
354
330
23
100
AcDbEntity
  8
0
  6
Continuous
 62
     7
370
    25
100
AcDbPolyline
 90
       26
 70
   128
 43
0.0
 10
11.687989796
 20
-3.0625
 10
11.8050559299
 20
-3.0685361489
 10
11.9298908054
 20
-3.0884065135
 10
12.0529889694
 20
-3.1220010306
 10
12.1734666472
 20
-3.1690785109
 10
12.2904588777
 20
-3.2293009649
 10
12.4031257233
 20
-3.3022360296
 10
12.5106583001
 20
-3.3873600728
 10
12.6122845855
 20
-3.4840619523
 10
12.7072749608
 20
-3.5916474037
 10
12.7949474489
 20
-3.7093440247
 10
12.8746726116
 20
-3.8363068207
 10
12.9458780673
 20
-3.971624271
 10
13.0080526016
 20
-4.1143248735
 10
13.0607498367
 20
-4.2633841189
 10
13.1035914364
 20
-4.417731847
 10
13.1362698225
 20
-4.5762599288
 10
13.1585503828
 20
-4.7378302229
 10
13.1702731554
 20
-4.9012827468
 10
13.1713539777
 20
-5.0654440044
 10
13.1617850898
 20
-5.2291354113
 10
13.141635191
 20
-5.3911817564
 10
13.1110489461
 20
-5.5504196392
 10
13.0702459469
 20
-5.7057058225
 10
13.0195191356
 20
-5.8559254399
 10
12.9592327019
 20
-6.0
  0
LWPOLYLINE
  5
355
330
23
100
AcDbEntity
  8
0
  6
Continuous
 62
     7
370
    25
100
AcDbPolyline
 90
       36
 70
   128
 43
0.0
 10
11.0139576927
 20
-5.0
 10
11.0085717836
 20
-5.0781186415
 10
10.9925871638
 20
-5.1537264855
 10
10.9665175923
 20
-5.2243934339
 10
10.9312009665
 20
-5.2878481926
 10
10.8877723917
 20
-5.3420512736
 10
10.8376276981
 20
-5.3852605452
 10
10.7823785775
 20
-5.4160872259
 10
10.723800782
 20
-5.4335405208
 10
10.6637770502
 20
-5.4370594666
 10
10.6042365941
 20
-5.4265309616
 10
10.5470930931
 20
-5.4022934005
 10
10.4941831863
 20
-5.3651257985
 10
10.4472074416
 20
-5.3162227529
 10
10.4076756981
 20
-5.2571560479
 10
10.3768585386
 20
-5.1898241359
 10
10.3557464519
 20
-5.1163911199
 10
10.3450179979
 20
-5.0392171976
 10
10.3450179979
 20
-4.9607828024
 10
10.3557464519
 20
-4.8836088801
 10
10.3768585386
 20
-4.8101758641
 10
10.4076756981
 20
-4.7428439521
 10
10.4472074416
 20
-4.6837772471
 10
10.4941831863
 20
-4.6348742015
 10
10.5470930931
 20
-4.5977065995
 10
10.6042365941
 20
-4.5734690384
 10
10.6637770502
 20
-4.5629405334
 10
10.723800782
 20
-4.5664594792
 10
10.7823785775
 20
-4.5839127741
 10
10.8376276981
 20
-4.6147394548
 10
10.8877723917
 20
-4.6579487264
 10
10.9312009665
 20
-4.7121518074
 10
10.9665175923
 20
-4.7756065661
 10
10.9925871638
 20
-4.8462735145
 10
11.0085717836
 20
-4.9218813585
 10
11.0139576927
 20
-5.0
  0
SPLINE
  5
358
330
23
100
AcDbEntity
  8
0
  6
Continuous
 62
     7
370
    25
100
AcDbSpline
210
0.0
220
0.0
230
1.0
 70
     8
 71
     3
 72
    10
 73
     6
 74
     0
 42
0.00000001
 43
0.00000001
 40
0.0
 40
0.0
 40
0.0
 40
0.0
 40
0.2908892610358743
 40
0.6454446305179373
 40
1.0
 40
1.0
 40
1.0
 40
1.0
 10
12.67409999158525
 20
-3.137140760901219
 30
0.0
 10
12.6225940746825
 20
-3.112517345365149
 30
0.0
 10
12.50830928676563
 20
-3.057881257095095
 30
0.0
 10
12.32226742128811
 20
-3.010440001575106
 30
0.0
 10
12.18867009545887
 20
-3.003480000525032
 30
0.0
 10
12.12187143254425
 20
-2.999999999999997
 30
0.0
  0
SPLINE
  5
367
330
23
100
AcDbEntity
  8
0
  6
Continuous
 62
     7
370
    25
100
AcDbSpline
210
0.0
220
0.0
230
1.0
 70
     8
 71
     3
 72
    22
 73
    18
 74
     0
 42
0.00000001
 43
0.00000001
 40
0.0
 40
0.0
 40
0.0
 40
0.0
 40
0.125
 40
0.125
 40
0.25
 40
0.25
 40
0.375
 40
0.375
 40
0.5
 40
0.5
 40
0.625
 40
0.625
 40
0.75
 40
0.75
 40
0.875
 40
0.875
 40
1.0
 40
1.0
 40
1.0
 40
1.0
 10
-10.77201745220248
 20
-7.000000000000003
 30
0.0
 10
-10.87229243530673
 20
-7.000000000000007
 30
0.0
 10
-10.97256493895929
 20
-6.987107824236508
 30
0.0
 10
-11.16926139379266
 20
-6.936033297376443
 30
0.0
 10
-11.26568048136563
 20
-6.897852209171735
 30
0.0
 10
-11.45096449038726
 20
-6.797665920873467
 30
0.0
 10
-11.53982483041231
 20
-6.735663198036296
 30
0.0
 10
-11.70657603306065
 20
-6.590215251173947
 30
0.0
 10
-11.78446277250767
 20
-6.506773623569527
 30
0.0
 10
-11.92627301357618
 20
-6.321653501176733
 30
0.0
 10
-11.99019300872843
 20
-6.219979583758172
 30
0.0
 10
-12.10161260018326
 20
-6.0023013483203
 30
0.0
 10
-12.14910944147231
 20
-5.886302412715988
 30
0.0
 10
-12.2258565908993
 20
-5.64443131674441
 30
0.0
 10
-12.25510500135091
 20
-5.518565136996005
 30
0.0
 10
-12.29423035883734
 20
-5.261796151068532
 30
0.0
 10
-12.30410633844051
 20
-5.130899693879504
 30
0.0
 10
-12.30410633844051
 20
-5.0
 30
0.0
  0
SPLINE
  5
368
330
23
100
AcDbEntity
  8
0
  6
Continuous
 62
     7
370
    25
100
AcDbSpline
210
0.0
220
0.0
230
1.0
 70
     8
 71
     3
 72
    38
 73
    34
 74
     0
 42
0.00000001
 43
0.00000001
 40
0.0
 40
0.0
 40
0.0
 40
0.0
 40
0.0625
 40
0.0625
 40
0.125
 40
0.125
 40
0.1875
 40
0.1875
 40
0.25
 40
0.25
 40
0.3125
 40
0.3125
 40
0.375
 40
0.375
 40
0.4375
 40
0.4375
 40
0.5
 40
0.5
 40
0.5625
 40
0.5625
 40
0.625
 40
0.625
 40
0.6875
 40
0.6875
 40
0.75
 40
0.75
 40
0.8125
 40
0.8125
 40
0.875
 40
0.875
 40
0.9375
 40
0.9375
 40
1.0
 40
1.0
 40
1.0
 40
1.0
 10
-12.30410633844051
 20
-5.0
 30
0.0
 10
-12.30410633844051
 20
-5.196349540819668
 30
0.0
 10
-12.28179183701369
 20
-5.392672458581425
 30
0.0
 10
-12.19446703124339
 20
-5.768461758916902
 30
0.0
 10
-12.12946749804625
 20
-5.947881789462699
 30
0.0
 10
-11.96233811086332
 20
-6.274399142619929
 30
0.0
 10
-11.86023091796581
 20
-6.421452192714832
 30
0.0
 10
-11.62769026740059
 20
-6.670577660092099
 30
0.0
 10
-11.49728549263956
 20
-6.772619348801111
 30
0.0
 10
-11.21935947910625
 20
-6.922898781247924
 30
0.0
 10
-11.07187592435243
 20
-6.971116148581798
 30
0.0
 10
-10.77249976098216
 20
-7.009607359798434
 30
0.0
 10
-10.62064407915106
 20
-6.999876455951503
 30
0.0
 10
-10.32559939689559
 20
-6.923264665658449
 30
0.0
 10
-10.18245040160557
 20
-6.856394167012478
 30
0.0
 10
-9.917146687188916
 20
-6.67127724456738
 30
0.0
 10
-9.795024692157599
 20
-6.553053654160086
 30
0.0
 10
-9.582309330557676
 20
-6.275373470571774
 30
0.0
 10
-9.491744806080725
 20
-6.115954528066752
 30
0.0
 10
-9.349937016318565
 20
-5.769625125381862
 30
0.0
 10
-9.298711242423266
 20
-5.582757383467814
 30
0.0
 10
-9.240023206194861
 20
-5.197603904571844
 30
0.0
 10
-9.232568901377944
 20
-4.999370390585034
 30
0.0
 10
-9.262054879842118
 20
-4.608562564669272
 30
0.0
 10
-9.2989915261524
 20
-4.416036457233925
 30
0.0
 10
-9.414112250295037
 20
-4.05322981327762
 30
0.0
 10
-9.492280718898277
 20
-3.882998469741366
 30
0.0
 10
-9.683121898824487
 20
-3.579438209429467
 30
0.0
 10
-9.795771070695348
 20
-3.446146735528206
 30
0.0
 10
-10.04589787466438
 20
-3.227974815241908
 30
0.0
 10
-10.18334159205038
 20
-3.14312395080404
 30
0.0
 10
-10.47121289735584
 20
-3.029129512816356
 30
0.0
 10
-10.62160497756553
 20
-2.999999999998
 30
0.0
 10
-10.77201745221807
 20
-2.999999999999997
 30
0.0
  0
LWPOLYLINE
  5
369
330
23
100
AcDbEntity
  8
0
  6
Continuous
 62
     7
370
    25
100
AcDbPolyline
 90
       18
 70
   128
 43
0.0
 10
-12.6415698335
 20
-5.0
 10
-12.6361965822
 20
-4.8326443133
 10
-12.6201145176
 20
-4.6664625066
 10
-12.5934364439
 20
-4.5026202257
 10
-12.5563494886
 20
-4.3422667065
 10
-12.50911379
 20
-4.1865267138
 10
-12.4520606727
 20
-4.0364926518
 10
-12.3855903233
 20
-3.8932169015
 10
-12.3101689835
 20
-3.7577044394
 10
-12.2263256798
 20
-3.6309057881
 10
-12.1346485127
 20
-3.513710349
 10
-12.0357805318
 20
-3.406940164
 10
-11.9304152248
 20
-3.311344149
 10
-11.8192916537
 20
-3.2275928415
 10
-11.7031892705
 20
-3.1562736968
 10
-11.58292245
 20
-3.0978869674
 10
-11.4593347775
 20
-3.0528421943
 10
-11.3397857455
 20
-3.0227254488
  0
LWPOLYLINE
  5
36A
330
23
100
AcDbEntity
  8
0
  6
Continuous
 62
     7
370
    25
100
AcDbPolyline
 90
       18
 70
   128
 43
0.0
 10
-11.3521102974
 20
-6.9747612589
 10
-11.4593347775
 20
-6.9471578057
 10
-11.58292245
 20
-6.9021130326
 10
-11.7031892705
 20
-6.8437263032
 10
-11.8192916537
 20
-6.7724071585
 10
-11.9304152248
 20
-6.688655851
 10
-12.0357805318
 20
-6.593059836
 10
-12.1346485127
 20
-6.486289651
 10
-12.2263256798
 20
-6.3690942119
 10
-12.3101689835
 20
-6.2422955606
 10
-12.3855903233
 20
-6.1067830985
 10
-12.4520606727
 20
-5.9635073482
 10
-12.50911379
 20
-5.8134732862
 10
-12.5563494886
 20
-5.6577332935
 10
-12.5934364439
 20
-5.4973797743
 10
-12.6201145176
 20
-5.3335374934
 10
-12.6361965822
 20
-5.1673556867
 10
-12.6415698335
 20
-5.0
  0
LWPOLYLINE
  5
36B
330
23
100
AcDbEntity
  8
0
  6
Continuous
 62
     7
370
    25
100
AcDbPolyline
 90
       36
 70
   128
 43
0.0
 10
-12.0251586577
 20
-3.0248469682
 10
-12.071492767
 20
-3.0354254985
 10
-12.1964170059
 20
-3.0736748664
 10
-12.3184512972
 20
-3.125436021
 10
-12.4367396581
 20
-3.1903458951
 10
-12.5504523806
 20
-3.2679491924
 10
-12.6587918517
 20
-3.3577015817
 10
-12.760998148
 20
-3.4589735144
 10
-12.8563543656
 20
-3.5710546407
 10
-12.9441916492
 20
-3.693158792
 10
-13.0238938833
 20
-3.8244294954
 10
-13.0949020141
 20
-3.9639459813
 10
-13.1567179706
 20
-4.1107296416
 10
-13.2089081582
 20
-4.2637508946
 10
-13.2511065002
 20
-4.4219364061
 10
-13.2830170056
 20
-4.5841766184
 10
-13.3044158452
 20
-4.7493335329
 10
-13.3151529214
 20
-4.9162486925
 10
-13.3151529214
 20
-5.0837513075
 10
-13.3044158452
 20
-5.2506664671
 10
-13.2830170056
 20
-5.4158233816
 10
-13.2511065002
 20
-5.5780635939
 10
-13.2089081582
 20
-5.7362491054
 10
-13.1567179706
 20
-5.8892703584
 10
-13.0949020141
 20
-6.0360540187
 10
-13.0238938833
 20
-6.1755705046
 10
-12.9441916492
 20
-6.306841208
 10
-12.8563543656
 20
-6.4289453593
 10
-12.760998148
 20
-6.5410264856
 10
-12.6587918517
 20
-6.6422984183
 10
-12.5504523806
 20
-6.7320508076
 10
-12.4367396581
 20
-6.8096541049
 10
-12.3184512972
 20
-6.874563979
 10
-12.1964170059
 20
-6.9263251336
 10
-12.071492767
 20
-6.9645745015
 10
-12.0153842586
 20
-6.9771410651
  0
LWPOLYLINE
  5
36C
330
23
100
AcDbEntity
  8
0
  6
Continuous
 62
     7
370
    25
100
AcDbPolyline
 90
       15
 70
   128
 43
0.0
 10
-11.6157895049
 20
-6.8951116033
 10
-11.6888128314
 20
-6.8995601538
 10
-11.814020221
 20
-6.8960426056
 10
-11.9385324742
 20
-6.8784874214
 10
-12.0614277458
 20
-6.8470245736
 10
-12.1817961621
 20
-6.801887002
 10
-12.2987465577
 20
-6.7434088895
 10
-12.4114130726
 20
-6.6720231875
 10
-12.5189615633
 20
-6.5882584109
 10
-12.6205957786
 20
-6.4927347246
 10
-12.7155632542
 20
-6.3861593528
 10
-12.8031608841
 20
-6.269321342
 10
-12.8827401263
 20
-6.1430857201
 10
-12.9537118037
 20
-6.0083870915
 10
-12.9577118492
 20
-6.0
  0
SPLINE
  5
36E
330
23
100
AcDbEntity
  8
0
  6
Continuous
 62
     7
370
    25
100
AcDbSpline
210
0.0
220
0.0
230
1.0
 70
     8
 71
     3
 72
    29
 73
    25
 74
     0
 42
0.00000001
 43
0.00000001
 40
0.0
 40
0.0
 40
0.0
 40
0.0
 40
0.0087883097223798
 40
0.0577302425163137
 40
0.1066721753102471
 40
0.1556141081041807
 40
0.2045560408981144
 40
0.2534979736920481
 40
0.3024399064859819
 40
0.3513818392799152
 40
0.400323772073849
 40
0.4492657048677828
 40
0.4982076376617165
 40
0.5471495704556504
 40
0.5960915032495837
 40
0.6450334360435175
 40
0.693975368837451
 40
0.7429173016313847
 40
0.7918592344253184
 40
0.8408011672192522
 40
0.8897431000131856
 40
0.9386850328071191
 40
0.9876269656010528
 40
1.0
 40
1.0
 40
1.0
 40
1.0
 10
-12.67409999158616
 20
-6.86285923909838
 30
0.0
 10
-12.68549680771973
 20
-6.857955605358107
 30
0.0
 10
-12.7603622801586
 20
-6.825743726853617
 30
0.0
 10
-12.88960881871247
 20
-6.735185302232741
 30
0.0
 10
-13.05734878138581
 20
-6.59173183710551
 30
0.0
 10
-13.20828436953744
 20
-6.418127432840054
 30
0.0
 10
-13.34084498076643
 20
-6.221039805772855
 30
0.0
 10
-13.45249131578221
 20
-6.002850492173184
 30
0.0
 10
-13.5413857293976
 20
-5.767558225534428
 30
0.0
 10
-13.60598774579256
 20
-5.519117794070187
 30
0.0
 10
-13.64519722302394
 20
-5.261799139415076
 30
0.0
 10
-13.65834187794854
 20
-4.999999954910123
 30
0.0
 10
-13.64519717787524
 20
-4.738201040944423
 30
0.0
 10
-13.60598792638739
 20
-4.480881574671558
 30
0.0
 10
-13.54138505216696
 20
-4.232444119139092
 30
0.0
 10
-13.45249384410994
 20
-3.997140760390996
 30
0.0
 10
-13.34083554468615
 20
-3.778992839296925
 30
0.0
 10
-13.20831958553082
 20
-3.581750734316645
 30
0.0
 10
-13.05721735349259
 20
-3.408722849197924
 30
0.0
 10
-12.89009931429196
 20
-3.263117785396828
 30
0.0
 10
-12.70988064331897
 20
-3.146501163801495
 30
0.0
 10
-12.5194369097414
 20
-3.064323169261743
 30
0.0
 10
-12.37177727058117
 20
-3.019847489360354
 30
0.0
 10
-12.28816516939707
 20
-3.01397055387655
 30
0.0
 10
-12.27129269190124
 20
-3.012784619540605
 30
0.0
  0
SPLINE
  5
36F
330
23
100
AcDbEntity
  8
0
  6
Continuous
 62
     7
370
    25
100
AcDbSpline
210
0.0
220
0.0
230
1.0
 70
     8
 71
     3
 72
    22
 73
    18
 74
     0
 42
0.00000001
 43
0.00000001
 40
0.0
 40
0.0
 40
0.0
 40
0.0
 40
0.125
 40
0.125
 40
0.25
 40
0.25
 40
0.375
 40
0.375
 40
0.5
 40
0.5
 40
0.625
 40
0.625
 40
0.75
 40
0.75
 40
0.875
 40
0.875
 40
1.0
 40
1.0
 40
1.0
 40
1.0
 10
12.30410633844051
 20
-5.0
 30
0.0
 10
12.30410633844051
 20
-5.130899693899575
 30
0.0
 10
12.29423035884072
 20
-5.261796151046267
 30
0.0
 10
12.25510500134752
 20
-5.518565137018253
 30
0.0
 10
12.22585659090566
 20
-5.644431316724378
 30
0.0
 10
12.14910944146596
 20
-5.886302412735999
 30
0.0
 10
12.10161260019262
 20
-6.002301348302021
 30
0.0
 10
11.99019300871909
 20
-6.219979583776425
 30
0.0
 10
11.92627301358787
 20
-6.321653501161482
 30
0.0
 10
11.78446277249601
 20
-6.506773623584746
 30
0.0
 10
11.70657603307305
 20
-6.590215251163129
 30
0.0
 10
11.53982483039993
 20
-6.735663198047089
 30
0.0
 10
11.45096449040187
 20
-6.797665920865564
 30
0.0
 10
11.26568048135107
 20
-6.897852209179616
 30
0.0
 10
11.16926139381057
 20
-6.936033297371796
 30
0.0
 10
10.97256493894144
 20
-6.987107824241151
 30
0.0
 10
10.87229243532025
 20
-7.000000000000007
 30
0.0
 10
10.7720174522025
 20
-7.000000000000003
 30
0.0
  0
LWPOLYLINE
  5
370
330
23
100
AcDbEntity
  8
0
  6
Continuous
 62
     7
370
    25
100
AcDbPolyline
 90
       13
 70
   128
 43
0.0
 10
10.7720174522
 20
-3.0
 10
10.9719951807
 20
-3.0171102773
 10
11.1685512348
 20
-3.0681483474
 10
11.3583224859
 20
-3.152240935
 10
11.5380618953
 20
-3.2679491924
 10
11.704694072
 20
-3.4132933194
 10
11.855367893
 20
-3.5857864376
 10
11.9875052877
 20
-3.782477142
 10
12.0988453485
 20
-4.0
 10
12.1874830162
 20
-4.2346331353
 10
12.2519016756
 20
-4.4823619098
 10
12.2909991056
 20
-4.7389476156
 10
12.3041063384
 20
-5.0
  0
LWPOLYLINE
  5
371
330
23
100
AcDbEntity
  8
0
  6
Continuous
 62
     7
370
    25
100
AcDbPolyline
 90
       18
 70
   128
 43
0.0
 10
12.6415698335
 20
-5.0
 10
12.6361965822
 20
-4.8326443133
 10
12.6201145176
 20
-4.6664625066
 10
12.5934364439
 20
-4.5026202257
 10
12.5563494886
 20
-4.3422667065
 10
12.50911379
 20
-4.1865267138
 10
12.4520606727
 20
-4.0364926518
 10
12.3855903233
 20
-3.8932169015
 10
12.3101689835
 20
-3.7577044394
 10
12.2263256798
 20
-3.6309057881
 10
12.1346485127
 20
-3.513710349
 10
12.0357805318
 20
-3.406940164
 10
11.9304152248
 20
-3.311344149
 10
11.8192916537
 20
-3.2275928415
 10
11.7031892705
 20
-3.1562736968
 10
11.58292245
 20
-3.0978869674
 10
11.4593347775
 20
-3.0528421943
 10
11.3479382779
 20
-3.0243729324
  0
LWPOLYLINE
  5
372
330
23
100
AcDbEntity
  8
0
  6
Continuous
 62
     7
370
    25
100
AcDbPolyline
 90
       18
 70
   128
 43
0.0
 10
11.3456832251
 20
-6.9760886459
 10
11.4593347775
 20
-6.9471578057
 10
11.58292245
 20
-6.9021130326
 10
11.7031892705
 20
-6.8437263032
 10
11.8192916537
 20
-6.7724071585
 10
11.9304152248
 20
-6.688655851
 10
12.0357805318
 20
-6.593059836
 10
12.1346485127
 20
-6.486289651
 10
12.2263256798
 20
-6.3690942119
 10
12.3101689835
 20
-6.2422955606
 10
12.3855903233
 20
-6.1067830985
 10
12.4520606727
 20
-5.9635073482
 10
12.50911379
 20
-5.8134732862
 10
12.5563494886
 20
-5.6577332935
 10
12.5934364439
 20
-5.4973797743
 10
12.6201145176
 20
-5.3335374934
 10
12.6361965822
 20
-5.1673556867
 10
12.6415698335
 20
-5.0
  0
LWPOLYLINE
  5
373
330
23
100
AcDbEntity
  8
0
  6
Continuous
 62
     7
370
    25
100
AcDbPolyline
 90
       36
 70
   128
 43
0.0
 10
12.0176184575
 20
-3.023305915
 10
12.071492767
 20
-3.0354254985
 10
12.1964170059
 20
-3.0736748664
 10
12.3184512972
 20
-3.125436021
 10
12.4367396581
 20
-3.1903458951
 10
12.5504523806
 20
-3.2679491924
 10
12.6587918517
 20
-3.3577015817
 10
12.760998148
 20
-3.4589735144
 10
12.8563543656
 20
-3.5710546407
 10
12.9441916492
 20
-3.693158792
 10
13.0238938833
 20
-3.8244294954
 10
13.0949020141
 20
-3.9639459813
 10
13.1567179706
 20
-4.1107296416
 10
13.2089081582
 20
-4.2637508946
 10
13.2511065002
 20
-4.4219364061
 10
13.2830170056
 20
-4.5841766184
 10
13.3044158452
 20
-4.7493335329
 10
13.3151529214
 20
-4.9162486925
 10
13.3151529214
 20
-5.0837513075
 10
13.3044158452
 20
-5.2506664671
 10
13.2830170056
 20
-5.4158233816
 10
13.2511065002
 20
-5.5780635939
 10
13.2089081582
 20
-5.7362491054
 10
13.1567179706
 20
-5.8892703584
 10
13.0949020141
 20
-6.0360540187
 10
13.0238938833
 20
-6.1755705046
 10
12.9441916492
 20
-6.306841208
 10
12.8563543656
 20
-6.4289453593
 10
12.760998148
 20
-6.5410264856
 10
12.6587918517
 20
-6.6422984183
 10
12.5504523806
 20
-6.7320508076
 10
12.4367396581
 20
-6.8096541049
 10
12.3184512972
 20
-6.874563979
 10
12.1964170059
 20
-6.9263251336
 10
12.071492767
 20
-6.9645745015
 10
12.024433354
 20
-6.9753034525
  0
LWPOLYLINE
  5
374
330
23
100
AcDbEntity
  8
0
  6
Continuous
 62
     7
370
    25
100
AcDbPolyline
 90
       15
 70
   128
 43
0.0
 10
11.6150471627
 20
-6.8950417058
 10
11.6888128314
 20
-6.8995601538
 10
11.814020221
 20
-6.8960426056
 10
11.9385324742
 20
-6.8784874214
 10
12.0614277458
 20
-6.8470245736
 10
12.1817961621
 20
-6.801887002
 10
12.2987465577
 20
-6.7434088895
 10
12.4114130726
 20
-6.6720231875
 10
12.5189615633
 20
-6.5882584109
 10
12.6205957786
 20
-6.4927347246
 10
12.7155632542
 20
-6.3861593528
 10
12.8031608841
 20
-6.269321342
 10
12.8827401263
 20
-6.1430857201
 10
12.9537118037
 20
-6.0083870915
 10
12.9577118492
 20
-6.0
  0
SPLINE
  5
376
330
23
100
AcDbEntity
  8
0
  6
Continuous
 62
     7
370
    25
100
AcDbSpline
210
0.0
220
0.0
230
1.0
 70
     8
 71
     3
 72
    29
 73
    25
 74
     0
 42
0.00000001
 43
0.00000001
 40
0.0
 40
0.0
 40
0.0
 40
0.0
 40
0.0472153205346058
 40
0.0944306410692116
 40
0.1416459616038173
 40
0.1888612821384233
 40
0.2360766026730289
 40
0.2832919232076347
 40
0.3305072437422406
 40
0.3777225642768464
 40
0.4249378848114526
 40
0.4721532053460581
 40
0.519368525880664
 40
0.5665838464152698
 40
0.6137991669498755
 40
0.6610144874844813
 40
0.708229808019087
 40
0.7554451285536928
 40
0.8026604490882991
 40
0.849875769622904
 40
0.8970910901575108
 40
0.9443064106921163
 40
0.9915217312267223
 40
1.0
 40
1.0
 40
1.0
 40
1.0
 10
12.12187143254425
 20
-7.000000000000003
 30
0.0
 10
12.1887213120274
 20
-6.996697708420052
 30
0.0
 10
12.32242107099368
 20
-6.990093125260158
 30
0.0
 10
12.51953924952634
 20
-6.936965835445102
 30
0.0
 10
12.70985322145624
 20
-6.853153448428267
 30
0.0
 10
12.89010666195793
 20
-6.736974760977284
 30
0.0
 10
13.05721538469143
 20
-6.591252353075868
 30
0.0
 10
13.2083201130695
 20
-6.418255910214069
 30
0.0
 10
13.34083540333259
 20
-6.221005380306436
 30
0.0
 10
13.45249388198551
 20
-6.002859716664848
 30
0.0
 10
13.54138504201823
 20
-5.767555753034183
 30
0.0
 10
13.60598792910674
 20
-5.51911845957951
 30
0.0
 10
13.64519717714659
 20
-5.261798949878028
 30
0.0
 10
13.65834187814378
 20
-5.000000047548995
 30
0.0
 10
13.64519722297164
 20
-4.738200859926003
 30
0.0
 10
13.60598774580658
 20
-4.480882206106374
 30
0.0
 10
13.54138572939385
 20
-4.232441774418265
 30
0.0
 10
13.45249131578321
 20
-3.997149507839497
 30
0.0
 10
13.34084498076616
 20
-3.77896019422375
 30
0.0
 10
13.20828436953751
 20
-3.581872567160856
 30
0.0
 10
13.05734878138579
 20
-3.408268162894255
 30
0.0
 10
12.88960881871249
 20
-3.264814697767312
 30
0.0
 10
12.76036228015829
 20
-3.174256273146217
 30
0.0
 10
12.68549680771913
 20
-3.142044394641618
 30
0.0
 10
12.67409999158525
 20
-3.137140760901219
 30
0.0
  0
LINE
  5
378
330
23
100
AcDbEntity
  8
0
  6
Continuous
 62
     7
370
    25
100
AcDbLine
 10
-11.1094809473
 20
-7.0
 30
0.0
 11
-10.7720174522
 21
-7.0
 31
0.0
  0
LINE
  5
379
330
23
100
AcDbEntity
  8
0
  6
Continuous
 62
     7
370
    25
100
AcDbLine
 10
-11.493317681
 20
-3.0625
 30
0.0
 11
-11.687989796
 21
-3.0625
 31
0.0
  0
LINE
  5
37A
330
23
100
AcDbEntity
  8
0
  6
Continuous
 62
     7
370
    25
100
AcDbLine
 10
-10.691669001
 20
-5.4375
 30
0.0
 11
-10.6788132488
 21
-5.4375
 31
0.0
  0
LINE
  5
37B
330
23
100
AcDbEntity
  8
0
  6
Continuous
 62
     7
370
    25
100
AcDbLine
 10
-10.6788132488
 20
-4.5625
 30
0.0
 11
-10.691669001
 21
-4.5625
 31
0.0
  0
LINE
  5
37C
330
23
100
AcDbEntity
  8
0
  6
Continuous
 62
     7
370
    25
100
AcDbLine
 10
-11.5400354705
 20
-6.9752223696
 30
0.0
 11
-11.4460051875
 21
-6.9512301312
 31
0.0
  0
LINE
  5
37D
330
23
100
AcDbEntity
  8
0
  6
Continuous
 62
     7
370
    25
100
AcDbLine
 10
-12.1218714325
 20
-7.0
 30
0.0
 11
-11.7844079375
 21
-7.0
 31
0.0
  0
LINE
  5
37E
330
23
100
AcDbEntity
  8
0
  6
Continuous
 62
     7
370
    25
100
AcDbLine
 10
-10.625
 20
-3.0
 30
0.0
 11
-10.625
 21
-3.0125789476
 31
0.0
  0
LINE
  5
37F
330
23
100
AcDbEntity
  8
0
  6
Continuous
 62
     7
370
    25
100
AcDbLine
 10
-9.875
 20
-3.3776034352
 30
0.0
 11
-9.875
 21
-3.0
 31
0.0
  0
LINE
  5
380
330
23
100
AcDbEntity
  8
0
  6
Continuous
 62
     7
370
    25
100
AcDbLine
 10
10.7720174522
 20
-7.0
 30
0.0
 11
11.1094809473
 21
-7.0
 31
0.0
  0
LINE
  5
381
330
23
100
AcDbEntity
  8
0
  6
Continuous
 62
     7
370
    25
100
AcDbLine
 10
11.687989796
 20
-3.0625
 30
0.0
 11
11.493636566
 21
-3.0625
 31
0.0
  0
LINE
  5
382
330
23
100
AcDbEntity
  8
0
  6
Continuous
 62
     7
370
    25
100
AcDbLine
 10
10.691669001
 20
-4.5625
 30
0.0
 11
10.6788132488
 21
-4.5625
 31
0.0
  0
LINE
  5
383
330
23
100
AcDbEntity
  8
0
  6
Continuous
 62
     7
370
    25
100
AcDbLine
 10
10.6788132488
 20
-5.4375
 30
0.0
 11
10.691669001
 21
-5.4375
 31
0.0
  0
LINE
  5
384
330
23
100
AcDbEntity
  8
0
  6
Continuous
 62
     7
370
    25
100
AcDbLine
 10
11.7844079375
 20
-7.0
 30
0.0
 11
12.1218714325
 21
-7.0
 31
0.0
  0
LINE
  5
385
330
23
100
AcDbEntity
  8
0
  6
Continuous
 62
     7
370
    25
100
AcDbLine
 10
9.875
 20
-3.0
 30
0.0
 11
9.875
 21
-3.3789981545
 31
0.0
  0
LINE
  5
386
330
23
100
AcDbEntity
  8
0
  6
Continuous
 62
     7
370
    25
100
AcDbLine
 10
10.625
 20
-3.0123604414
 30
0.0
 11
10.625
 21
-3.0
 31
0.0
  0
LINE
  5
387
330
23
100
AcDbEntity
  8
0
  6
Continuous
 62
     7
370
    25
100
AcDbLine
 10
2.1875
 20
60.0
 30
0.0
 11
1.9375
 21
60.0
 31
0.0
  0
LINE
  5
388
330
23
100
AcDbEntity
  8
0
  6
Continuous
 62
     7
370
    25
100
AcDbLine
 10
1.9375
 20
48.5
 30
0.0
 11
2.1875
 21
48.5
 31
0.0
  0
LINE
  5
389
330
23
100
AcDbEntity
  8
0
  6
Continuous
 62
     7
370
    25
100
AcDbLine
 10
2.1875
 20
48.5
 30
0.0
 11
2.1875
 21
60.0
 31
0.0
  0
LINE
  5
38A
330
23
100
AcDbEntity
  8
0
  6
Continuous
 62
     7
370
    25
100
AcDbLine
 10
2.1875
 20
48.0
 30
0.0
 11
1.9375
 21
48.0
 31
0.0
  0
LINE
  5
38B
330
23
100
AcDbEntity
  8
0
  6
Continuous
 62
     7
370
    25
100
AcDbLine
 10
2.1875
 20
36.5
 30
0.0
 11
2.1875
 21
48.0
 31
0.0
  0
LINE
  5
38C
330
23
100
AcDbEntity
  8
0
  6
Continuous
 62
     7
370
    25
100
AcDbLine
 10
1.9375
 20
36.5
 30
0.0
 11
2.1875
 21
36.5
 31
0.0
  0
LINE
  5
38D
330
23
100
AcDbEntity
  8
0
  6
Continuous
 62
     7
370
    25
100
AcDbLine
 10
2.1875
 20
36.0
 30
0.0
 11
1.9375
 21
36.0
 31
0.0
  0
LINE
  5
38E
330
23
100
AcDbEntity
  8
0
  6
Continuous
 62
     7
370
    25
100
AcDbLine
 10
2.1875
 20
24.5
 30
0.0
 11
2.1875
 21
36.0
 31
0.0
  0
LINE
  5
38F
330
23
100
AcDbEntity
  8
0
  6
Continuous
 62
     7
370
    25
100
AcDbLine
 10
1.9375
 20
24.5
 30
0.0
 11
2.1875
 21
24.5
 31
0.0
  0
LINE
  5
390
330
23
100
AcDbEntity
  8
0
  6
Continuous
 62
     7
370
    25
100
AcDbLine
 10
2.1875
 20
24.0
 30
0.0
 11
1.9375
 21
24.0
 31
0.0
  0
LINE
  5
391
330
23
100
AcDbEntity
  8
0
  6
Continuous
 62
     7
370
    25
100
AcDbLine
 10
1.9375
 20
12.5
 30
0.0
 11
2.1875
 21
12.5
 31
0.0
  0
LINE
  5
392
330
23
100
AcDbEntity
  8
0
  6
Continuous
 62
     7
370
    25
100
AcDbLine
 10
2.1875
 20
12.5
 30
0.0
 11
2.1875
 21
24.0
 31
0.0
  0
LINE
  5
393
330
23
100
AcDbEntity
  8
0
  6
Continuous
 62
     7
370
    25
100
AcDbLine
 10
2.1875
 20
12.0
 30
0.0
 11
1.9375
 21
12.0
 31
0.0
  0
LINE
  5
394
330
23
100
AcDbEntity
  8
0
  6
Continuous
 62
     7
370
    25
100
AcDbLine
 10
1.9375
 20
0.5
 30
0.0
 11
2.1875
 21
0.5
 31
0.0
  0
LINE
  5
395
330
23
100
AcDbEntity
  8
0
  6
Continuous
 62
     7
370
    25
100
AcDbLine
 10
2.1875
 20
0.5
 30
0.0
 11
2.1875
 21
12.0
 31
0.0
  0
LINE
  5
396
330
23
100
AcDbEntity
  8
0
  6
Continuous
 62
     7
370
    25
100
AcDbLine
 10
-2.1875
 20
60.0
 30
0.0
 11
-2.1875
 21
48.5
 31
0.0
  0
LINE
  5
397
330
23
100
AcDbEntity
  8
0
  6
Continuous
 62
     7
370
    25
100
AcDbLine
 10
-1.9375
 20
60.0
 30
0.0
 11
-2.1875
 21
60.0
 31
0.0
  0
LINE
  5
398
330
23
100
AcDbEntity
  8
0
  6
Continuous
 62
     7
370
    25
100
AcDbLine
 10
-2.1875
 20
48.5
 30
0.0
 11
-1.9375
 21
48.5
 31
0.0
  0
LINE
  5
399
330
23
100
AcDbEntity
  8
0
  6
Continuous
 62
     7
370
    25
100
AcDbLine
 10
-1.9375
 20
48.0
 30
0.0
 11
-2.1875
 21
48.0
 31
0.0
  0
LINE
  5
39A
330
23
100
AcDbEntity
  8
0
  6
Continuous
 62
     7
370
    25
100
AcDbLine
 10
-2.1875
 20
36.5
 30
0.0
 11
-1.9375
 21
36.5
 31
0.0
  0
LINE
  5
39B
330
23
100
AcDbEntity
  8
0
  6
Continuous
 62
     7
370
    25
100
AcDbLine
 10
-2.1875
 20
48.0
 30
0.0
 11
-2.1875
 21
36.5
 31
0.0
  0
LINE
  5
39C
330
23
100
AcDbEntity
  8
0
  6
Continuous
 62
     7
370
    25
100
AcDbLine
 10
-2.1875
 20
36.0
 30
0.0
 11
-2.1875
 21
24.5
 31
0.0
  0
LINE
  5
39D
330
23
100
AcDbEntity
  8
0
  6
Continuous
 62
     7
370
    25
100
AcDbLine
 10
-2.1875
 20
24.5
 30
0.0
 11
-1.9375
 21
24.5
 31
0.0
  0
LINE
  5
39E
330
23
100
AcDbEntity
  8
0
  6
Continuous
 62
     7
370
    25
100
AcDbLine
 10
-1.9375
 20
36.0
 30
0.0
 11
-2.1875
 21
36.0
 31
0.0
  0
LINE
  5
39F
330
23
100
AcDbEntity
  8
0
  6
Continuous
 62
     7
370
    25
100
AcDbLine
 10
-2.1875
 20
24.0
 30
0.0
 11
-2.1875
 21
12.5
 31
0.0
  0
LINE
  5
3A0
330
23
100
AcDbEntity
  8
0
  6
Continuous
 62
     7
370
    25
100
AcDbLine
 10
-1.9375
 20
24.0
 30
0.0
 11
-2.1875
 21
24.0
 31
0.0
  0
LINE
  5
3A1
330
23
100
AcDbEntity
  8
0
  6
Continuous
 62
     7
370
    25
100
AcDbLine
 10
-2.1875
 20
12.5
 30
0.0
 11
-1.9375
 21
12.5
 31
0.0
  0
LINE
  5
3A2
330
23
100
AcDbEntity
  8
0
  6
Continuous
 62
     7
370
    25
100
AcDbLine
 10
-2.1875
 20
0.5
 30
0.0
 11
-1.9375
 21
0.5
 31
0.0
  0
LINE
  5
3A3
330
23
100
AcDbEntity
  8
0
  6
Continuous
 62
     7
370
    25
100
AcDbLine
 10
-1.9375
 20
12.0
 30
0.0
 11
-2.1875
 21
12.0
 31
0.0
  0
LINE
  5
3A4
330
23
100
AcDbEntity
  8
0
  6
Continuous
 62
     7
370
    25
100
AcDbLine
 10
-2.1875
 20
12.0
 30
0.0
 11
-2.1875
 21
0.5
 31
0.0
  0
LINE
  5
3A5
330
23
100
AcDbEntity
  8
0
  6
Continuous
 62
     7
370
    25
100
AcDbLine
 10
-12.9592327019
 20
-6.0
 30
0.0
 11
-12.4567133609
 21
-6.0
 31
0.0
  0
LINE
  5
3A6
330
23
100
AcDbEntity
  8
0
  6
Continuous
 62
     7
370
    25
100
AcDbLine
 10
12.9592327019
 20
-6.0
 30
0.0
 11
12.4560597933
 21
-6.0
 31
0.0
  0
LINE
  5
3A7
330
23
100
AcDbEntity
  8
0
  6
Continuous
 62
     7
370
    25
100
AcDbLine
 10
11.0
 20
-3.0
 30
0.0
 11
11.0
 21
0.0
 31
0.0
  0
LINE
  5
3A8
330
23
100
AcDbEntity
  8
0
  6
Continuous
 62
     7
370
    25
100
AcDbLine
 10
13.0
 20
-3.0
 30
0.0
 11
-13.0
 21
-3.0
 31
0.0
  0
LINE
  5
3A9
330
23
100
AcDbEntity
  8
0
  6
Continuous
 62
     7
370
    25
100
AcDbLine
 10
-11.0
 20
-3.0
 30
0.0
 11
-11.0
 21
0.0
 31
0.0
  0
LINE
  5
3AA
330
23
100
AcDbEntity
  8
0
  6
Continuous
 62
     7
370
    25
100
AcDbLine
 10
13.0
 20
0.0
 30
0.0
 11
-13.0
 21
0.0
 31
0.0
  0
LINE
  5
3AB
330
23
100
AcDbEntity
  8
0
  6
Continuous
 62
     7
370
    25
100
AcDbLine
 10
-13.0
 20
-3.0
 30
0.0
 11
-13.0
 21
0.0
 31
0.0
  0
LINE
  5
3AC
330
23
100
AcDbEntity
  8
0
  6
Continuous
 62
     7
370
    25
100
AcDbLine
 10
13.0
 20
-3.0
 30
0.0
 11
13.0
 21
0.0
 31
0.0
  0
LINE
  5
3AD
330
23
100
AcDbEntity
  8
0
  6
Continuous
 62
     7
370
    25
100
AcDbLine
 10
-1.9375
 20
0.0
 30
0.0
 11
-1.9375
 21
60.441
 31
0.0
  0
LINE
  5
3AE
330
23
100
AcDbEntity
  8
0
  6
Continuous
 62
     7
370
    25
100
AcDbLine
 10
-1.9375
 20
60.441
 30
0.0
 11
1.9375
 21
60.441
 31
0.0
  0
LINE
  5
3AF
330
23
100
AcDbEntity
  8
0
  6
Continuous
 62
     7
370
    25
100
AcDbLine
 10
1.9375
 20
0.0
 30
0.0
 11
1.9375
 21
60.441
 31
0.0
  0
LINE
  5
3B0
330
23
100
AcDbEntity
  8
0
  6
Continuous
 62
     7
370
    25
100
AcDbLine
 10
-12.2982147794
 20
-3.015088098
 30
0.0
 11
-12.2712926919
 21
-3.0127846195
 31
0.0
  0
ARC
  5
3B1
330
23
100
AcDbEntity
  8
0
  6
Continuous
 62
     7
370
    25
100
AcDbCircle
 10
-11.1089034801
 20
-4.1841951634
 30
0.0
 40
1.184195304222466
100
AcDbArc
 50
90.0279400129
 51
101.2429566239
  0
ARC
  5
3B2
330
23
100
AcDbEntity
  8
0
  6
Continuous
 62
     7
370
    25
100
AcDbCircle
 10
-11.1088543105
 20
-5.8151137109
 30
0.0
 40
1.184886454808823
100
AcDbArc
 50
258.1529980789
 51
269.9696986601
  0
ARC
  5
3B3
330
23
100
AcDbEntity
  8
0
  6
Continuous
 62
     7
370
    25
100
AcDbCircle
 10
-11.7844107309
 20
-4.180992532
 30
0.0
 40
1.180945438603642
100
AcDbArc
 50
78.3505627139
 51
101.7627919854
  0
ARC
  5
3B4
330
23
100
AcDbEntity
  8
0
  6
Continuous
 62
     7
370
    25
100
AcDbCircle
 10
-11.7844027532
 20
-5.8189909963
 30
0.0
 40
1.180958948287216
100
AcDbArc
 50
258.7209197659
 51
281.5372216649
  0
ARC
  5
3B5
330
23
100
AcDbEntity
  8
0
  6
Continuous
 62
     7
370
    25
100
AcDbCircle
 10
11.1088711666
 20
-4.1846492397
 30
0.0
 40
1.184649396591804
100
AcDbArc
 50
78.3575219539
 51
89.9705078489
  0
ARC
  5
3B6
330
23
100
AcDbEntity
  8
0
  6
Continuous
 62
     7
370
    25
100
AcDbCircle
 10
11.1088801875
 20
-5.8154775705
 30
0.0
 40
1.184522581869826
100
AcDbArc
 50
270.029058967
 51
281.5319492971
  0
ARC
  5
3B7
330
23
100
AcDbEntity
  8
0
  6
Continuous
 62
     7
370
    25
100
AcDbCircle
 10
11.7844110619
 20
-4.1806627454
 30
0.0
 40
1.18061870315104
100
AcDbArc
 50
78.6074535429
 51
101.2490420344
  0
ARC
  5
3B8
330
23
100
AcDbEntity
  8
0
  6
Continuous
 62
     7
370
    25
100
AcDbCircle
 10
11.78440497
 20
-5.8186774226
 30
0.0
 40
1.181269401176279
100
AcDbArc
 50
258.1473991626
 51
281.7238736761
  0
ARC
  5
3B9
330
23
100
AcDbEntity
  8
0
  6
Continuous
 62
     7
370
    25
100
AcDbCircle
 10
-10.7626745471
 20
-4.9999999998
 30
0.0
 40
2.41370980390646
100
AcDbArc
 50
159.1172213821
 51
200.88277917
  0
ARC
  5
3BA
330
23
100
AcDbEntity
  8
0
  6
Continuous
 62
     7
370
    25
100
AcDbCircle
 10
10.7626745471
 20
-4.9999999998
 30
0.0
 40
2.413709803906462
100
AcDbArc
 50
339.11722083
 51
20.8827786179
  0
VIEWPORT
  5
3BD
330
23
100
AcDbEntity
  8
0
100
AcDbViewport
 10
0.0
 20
0.0
 30
0.0
 40
8.4
 41
6.4
 68
     1
 69
     1
 12
0.0
 22
26.7202816478
 13
0.0
 23
0.0
 14
0.5
 24
0.5
 15
0.5
 25
0.5
 16
0.0
 26
0.0
 36
1.0
 17
0.0
 27
0.0
 37
0.0
 42
50.0
 43
0.0
 44
0.0
 45
68.7902654385
 50
0.0
 51
0.0
 72
   100
 90
   557152
  1

281
     0
 71
     1
 74
     0
110
0.0
120
0.0
130
0.0
111
1.0
121
0.0
131
0.0
112
0.0
122
1.0
132
0.0
 79
     0
146
0.0
  0
ENDBLK
  5
25
330
23
100
AcDbEntity
  8
0
100
AcDbBlockEnd
  0
ENDSEC
  0
SECTION
  2
ENTITIES
  0
SPLINE
  5
63
330
1F
100
AcDbEntity
  8
0
  6
Continuous
 62
     7
370
    25
100
AcDbSpline
210
0.0
220
0.0
230
1.0
 70
     8
 71
     3
 72
    35
 73
    31
 74
     0
 42
0.00000001
 43
0.00000001
 40
0.0
 40
0.0
 40
0.0
 40
0.0
 40
0.0385378157666619
 40
0.0778968984607911
 40
0.1178577181810898
 40
0.1544176963283871
 40
0.1860865443249936
 40
0.212869348303147
 40
0.2379715725053024
 40
0.2643654178566854
 40
0.3015486926317805
 40
0.3413086121729856
 40
0.384617308845955
 40
0.419486684267856
 40
0.4563980474754714
 40
0.4953554744288781
 40
0.5355525268255051
 40
0.5862022677539837
 40
0.6330703340418299
 40
0.6761698603210827
 40
0.7160472164326641
 40
0.7559899282337182
 40
0.7965506518434562
 40
0.8377689714633094
 40
0.8799096713097038
 40
0.9230172334714841
 40
0.9450805316577233
 40
0.9696435546060438
 40
0.997438790506489
 40
1.0
 40
1.0
 40
1.0
 40
1.0
 10
21.57500897486029
 20
-2.999999999999997
 30
0.0
 10
21.52583050976768
 20
-3.002604966976346
 30
0.0
 10
21.42642555321872
 20
-3.007870414537749
 30
0.0
 10
21.28077352827764
 20
-3.048530412035305
 30
0.0
 10
21.14348360329588
 20
-3.109557470774492
 30
0.0
 10
21.02030467328567
 20
-3.187986760661067
 30
0.0
 10
20.91694575617919
 20
-3.272683681942065
 30
0.0
 10
20.8304116055745
 20
-3.358541388188648
 30
0.0
 10
20.75335716161656
 20
-3.448089657898572
 30
0.0
 10
20.67099646676182
 20
-3.5592537178859
 30
0.0
 10
20.58283688506743
 20
-3.701998262371244
 30
0.0
 10
20.49264136501268
 20
-3.884521771914765
 30
0.0
 10
20.41876712889106
 20
-4.07791288889664
 30
0.0
 10
20.36082577502505
 20
-4.277325963996921
 30
0.0
 10
20.31809951983
 20
-4.47685891991377
 30
0.0
 10
20.28818367898196
 20
-4.69214919629408
 30
0.0
 10
20.27248922714157
 20
-4.937142362214255
 30
0.0
 10
20.27771336599663
 20
-5.198589413245396
 30
0.0
 10
20.30693294870776
 20
-5.461762474610357
 30
0.0
 10
20.35383779930767
 20
-5.697595788117422
 30
0.0
 10
20.41515620151258
 20
-5.911573500726188
 30
0.0
 10
20.49024715555219
 20
-6.109300432585931
 30
0.0
 10
20.58051427194317
 20
-6.294489590257731
 30
0.0
 10
20.6859459808533
 20
-6.465231159068313
 30
0.0
 10
20.80612663460133
 20
-6.618607348045992
 30
0.0
 10
20.91766750006112
 20
-6.728606325490722
 30
0.0
 10
21.01564406526308
 20
-6.806955386091824
 30
0.0
 10
21.10025202938977
 20
-6.862713088771774
 30
0.0
 10
21.16413361428299
 20
-6.900334670306563
 30
0.0
 10
21.20082986352969
 20
-6.91472084596758
 30
0.0
 10
21.20392596983354
 20
-6.91593462476151
 30
0.0
  0
SPLINE
  5
65
330
1F
100
AcDbEntity
  8
0
  6
Continuous
 62
     7
370
    25
100
AcDbSpline
210
0.0
220
0.0
230
1.0
 70
     8
 71
     3
 72
    47
 73
    43
 74
     0
 42
0.00000001
 43
0.00000001
 40
0.0
 40
0.0
 40
0.0
 40
0.0
 40
0.0119545420676239
 40
0.0368139745254519
 40
0.0617001898448399
 40
0.0866719259237448
 40
0.111771035081475
 40
0.1370172676187232
 40
0.1624087525780206
 40
0.1879271437420621
 40
0.2135450219340506
 40
0.2392329274228144
 40
0.2649643185075811
 40
0.2907180568281084
 40
0.3164775829709334
 40
0.3422321049996126
 40
0.3679771953535607
 40
0.3937112474838891
 40
0.4194346147912089
 40
0.4451489640237192
 40
0.4708568149506675
 40
0.4965612224821508
 40
0.5222655577270511
 40
0.5479729029317744
 40
0.5736860940037786
 40
0.5994086420310689
 40
0.6251438452750496
 40
0.6508945791711096
 40
0.6766629905885264
 40
0.7024500491951609
 40
0.7282549042067434
 40
0.7540740013437969
 40
0.7798985325347745
 40
0.8057120207822028
 40
0.8314934626779563
 40
0.8572151890468942
 40
0.8828446425570113
 40
0.9083489046940281
 40
0.9337020065759319
 40
0.9588934784700167
 40
0.9839350929777695
 40
0.9999999999999999
 40
0.9999999999999999
 40
0.9999999999999999
 40
0.9999999999999999
 10
22.00606066156454
 20
-6.997973967361066
 30
0.0
 10
22.02287776459599
 20
-6.997744292533052
 30
0.0
 10
22.0746659802457
 20
-6.997037009625871
 30
0.0
 10
22.16096410387479
 20
-6.982486425249721
 30
0.0
 10
22.26405075447305
 20
-6.955143344657271
 30
0.0
 10
22.36522994003469
 20
-6.91502619993296
 30
0.0
 10
22.46397789340241
 20
-6.863187366201021
 30
0.0
 10
22.55972574458533
 20
-6.79963855705204
 30
0.0
 10
22.65188336634714
 20
-6.724767960961302
 30
0.0
 10
22.73984761272339
 20
-6.63898661987478
 30
0.0
 10
22.82302729716403
 20
-6.542833512607052
 30
0.0
 10
22.90086473048359
 20
-6.436937940939174
 30
0.0
 10
22.97285086660363
 20
-6.322008967710683
 30
0.0
 10
23.03853088511058
 20
-6.19881706532085
 30
0.0
 10
23.09750576160733
 20
-6.068179695563509
 30
0.0
 10
23.14943161705099
 20
-5.93094734918411
 30
0.0
 10
23.19401620485637
 20
-5.787994137517729
 30
0.0
 10
23.2310145858228
 20
-5.640213968175686
 30
0.0
 10
23.26022580074667
 20
-5.488521502993246
 30
0.0
 10
23.28149226535728
 20
-5.333848775864836
 30
0.0
 10
23.29469967293771
 20
-5.177141399554206
 30
0.0
 10
23.29977710750274
 20
-5.019354310600058
 30
0.0
 10
23.29669715668953
 20
-4.861448041150727
 30
0.0
 10
23.28547613420319
 20
-4.704384357956144
 30
0.0
 10
23.26617396100186
 20
-4.549119539890301
 30
0.0
 10
23.23889324307315
 20
-4.396598337452784
 30
0.0
 10
23.20377786796734
 20
-4.24774872918757
 30
0.0
 10
23.16101198621029
 20
-4.103479202104428
 30
0.0
 10
23.11081890911711
 20
-3.964675149253877
 30
0.0
 10
23.05346033126689
 20
-3.83219602666473
 30
0.0
 10
22.9892363233783
 20
-3.706873307268963
 30
0.0
 10
22.91848798082404
 20
-3.589511267103082
 30
0.0
 10
22.84160394774252
 20
-3.480888275755069
 30
0.0
 10
22.75902595498014
 20
-3.381749792571831
 30
0.0
 10
22.67125573201065
 20
-3.292798042158063
 30
0.0
 10
22.57885968238381
 20
-3.214683318433793
 30
0.0
 10
22.482475016926
 20
-3.147967088182713
 30
0.0
 10
22.38280291512227
 20
-3.093175491036376
 30
0.0
 10
22.28059678787848
 20
-3.050490306717468
 30
0.0
 10
22.17660981702237
 20
-3.020794905870204
 30
0.0
 10
22.08402040630211
 20
-3.004006078995875
 30
0.0
 10
22.02619702829458
 20
-3.002438905090367
 30
0.0
 10
22.00359897920582
 20
-3.001826435288921
 30
0.0
  0
SPLINE
  5
67
330
1F
100
AcDbEntity
  8
0
  6
Continuous
 62
     7
370
    25
100
AcDbSpline
210
0.0
220
0.0
230
1.0
 70
     8
 71
     3
 72
    11
 73
     7
 74
     0
 42
0.00000001
 43
0.00000001
 40
0.0
 40
0.0
 40
0.0
 40
0.0
 40
0.2043176197009952
 40
0.5367831887427065
 40
0.8696069469476082
 40
1.0
 40
1.0
 40
1.0
 40
1.0
 10
22.76666536210383
 20
-3.001600775716669
 30
0.0
 10
22.74516767649854
 20
-3.0018173715101
 30
0.0
 10
22.68868896337197
 20
-3.002386411913152
 30
0.0
 10
22.59784446461876
 20
-3.017904819952416
 30
0.0
 10
22.51538614264443
 20
-3.037972583553632
 30
0.0
 10
22.46881850942453
 20
-3.057112278356172
 30
0.0
 10
22.45570996992123
 20
-3.0625
 30
0.0
  0
SPLINE
  5
68
330
1F
100
AcDbEntity
  8
0
  6
Continuous
 62
     7
370
    25
100
AcDbSpline
210
0.0
220
0.0
230
1.0
 70
     8
 71
     3
 72
    12
 73
     8
 74
     0
 42
0.00000001
 43
0.00000001
 40
0.0
 40
0.0
 40
0.0
 40
0.0
 40
0.236101187484893
 40
0.4754533881832674
 40
0.7133817461081379
 40
0.9502263196018865
 40
1.0
 40
1.0
 40
1.0
 40
1.0
 10
22.37865652096812
 20
-6.905794185344306
 30
0.0
 10
22.41184064679553
 20
-6.920505324628521
 30
0.0
 10
22.47866582978854
 20
-6.950130169345424
 30
0.0
 10
22.5821388417894
 20
-6.979557186797167
 30
0.0
 10
22.68706031129309
 20
-6.996425889314512
 30
0.0
 10
22.76484129075183
 20
-7.002367798292941
 30
0.0
 10
22.80719112214273
 20
-6.998944434211534
 30
0.0
 10
22.81454552802562
 20
-6.99834993812707
 30
0.0
  0
SPLINE
  5
6C
330
1F
100
AcDbEntity
  8
0
  6
Continuous
 62
     7
370
    25
100
AcDbSpline
210
0.0
220
0.0
230
1.0
 70
     8
 71
     3
 72
    36
 73
    32
 74
     0
 42
0.00000001
 43
0.00000001
 40
0.0
 40
0.0
 40
0.0
 40
0.0
 40
0.0445176008108088
 40
0.0904317433515881
 40
0.1380068366703244
 40
0.1755686480062621
 40
0.214828354586942
 40
0.2557834506107861
 40
0.2984311805463233
 40
0.3427691518199193
 40
0.3840063257537983
 40
0.4173233629775558
 40
0.4427252005449114
 40
0.4552651528484664
 40
0.4652399754704997
 40
0.4791367150429678
 40
0.49817723570172
 40
0.5223601607611877
 40
0.5503787813943346
 40
0.5890342272852925
 40
0.622552304228553
 40
0.651082598780638
 40
0.6775222429668211
 40
0.7112497162778705
 40
0.7471624507770633
 40
0.790680359368645
 40
0.8283499521275399
 40
0.8703292165863015
 40
0.9162743907481045
 40
0.962082233741961
 40
1.0
 40
1.0
 40
1.0
 40
1.0
 10
23.18370230541016
 20
-7.000000000000003
 30
0.0
 10
23.23882696234453
 20
-6.99656745098576
 30
0.0
 10
23.35080556715341
 20
-6.989594671998479
 30
0.0
 10
23.51496464069731
 20
-6.937085519157793
 30
0.0
 10
23.66343366513578
 20
-6.861762830729263
 30
0.0
 10
23.79794568980643
 20
-6.764251580642146
 30
0.0
 10
23.91822443789522
 20
-6.65174905968708
 30
0.0
 10
24.03451843684462
 20
-6.513468337952137
 30
0.0
 10
24.14408038819235
 20
-6.3487892557927
 30
0.0
 10
24.24028704181968
 20
-6.164464019222406
 30
0.0
 10
24.31577273666253
 20
-5.97847858252508
 30
0.0
 10
24.36845545105098
 20
-5.812979778530823
 30
0.0
 10
24.3996687039158
 20
-5.69074670315205
 30
0.0
 10
24.4178240028414
 20
-5.607034429202544
 30
0.0
 10
24.43033048236946
 20
-5.542812969462156
 30
0.0
 10
24.44344634662254
 20
-5.466427533199997
 30
0.0
 10
24.45789713328358
 20
-5.363604007064469
 30
0.0
 10
24.47092480075771
 20
-5.233876344767545
 30
0.0
 10
24.47980429644282
 20
-5.066975478157731
 30
0.0
 10
24.47858127354725
 20
-4.882111639470344
 30
0.0
 10
24.46540099756477
 20
-4.697541483960717
 30
0.0
 10
24.44487805821204
 20
-4.537541391194063
 30
0.0
 10
24.41648523128676
 20
-4.380058914184223
 30
0.0
 10
24.37664678121786
 20
-4.213853830407879
 30
0.0
 10
24.31771881148604
 20
-4.025932053101417
 30
0.0
 10
24.24324439688432
 20
-3.842752859487642
 30
0.0
 10
24.15148580483507
 20
-3.66510366367037
 30
0.0
 10
24.04558104952832
 20
-3.500692098153738
 30
0.0
 10
23.91971404283478
 20
-3.348936456109481
 30
0.0
 10
23.78698893763672
 20
-3.223645600908741
 30
0.0
 10
23.69394072757123
 20
-3.164568619403607
 30
0.0
 10
23.651800929348
 20
-3.137813756752174
 30
0.0
  0
SPLINE
  5
6E
330
1F
100
AcDbEntity
  8
0
  6
Continuous
 62
     7
370
    25
100
AcDbSpline
210
0.0
220
0.0
230
1.0
 70
     8
 71
     3
 72
    35
 73
    31
 74
     0
 42
0.00000001
 43
0.00000001
 40
0.0
 40
0.0
 40
0.0
 40
0.0
 40
0.0385378157672053
 40
0.0778968984606252
 40
0.117857718181316
 40
0.154417696328178
 40
0.1860865443249113
 40
0.2128693483032739
 40
0.2379715725053307
 40
0.2643654178566643
 40
0.3015486926320888
 40
0.3413086121730602
 40
0.3846173088459199
 40
0.4194866842679476
 40
0.4563980474755895
 40
0.4953554744289683
 40
0.535552526825635
 40
0.5862022677541441
 40
0.6330703340420446
 40
0.6761698603213492
 40
0.7160472164327948
 40
0.7559899282339415
 40
0.796550651843886
 40
0.8377689714633841
 40
0.8799096713099516
 40
0.9230172334714614
 40
0.94508053165767
 40
0.9696435546064535
 40
0.9974387905067067
 40
1.0
 40
1.0
 40
1.0
 40
1.0
 10
-21.57500897486029
 20
-7.000000000000003
 30
0.0
 10
-21.52583050976703
 20
-6.997395033023602
 30
0.0
 10
-21.42642555321839
 20
-6.992129585462186
 30
0.0
 10
-21.28077352827694
 20
-6.951469587964311
 30
0.0
 10
-21.14348360329617
 20
-6.890442529225578
 30
0.0
 10
-21.02030467328588
 20
-6.812013239338837
 30
0.0
 10
-20.91694575617956
 20
-6.727316318057984
 30
0.0
 10
-20.83041160557452
 20
-6.641458611811483
 30
0.0
 10
-20.75335716161655
 20
-6.551910342101503
 30
0.0
 10
-20.67099646676182
 20
-6.440746282113711
 30
0.0
 10
-20.58283688506695
 20
-6.298001737629036
 30
0.0
 10
-20.49264136501267
 20
-6.115478228084986
 30
0.0
 10
-20.41876712889121
 20
-5.922087111103539
 30
0.0
 10
-20.36082577502509
 20
-5.722674036003284
 30
0.0
 10
-20.31809951983005
 20
-5.523141080086234
 30
0.0
 10
-20.28818367898195
 20
-5.30785080370592
 30
0.0
 10
-20.27248922714154
 20
-5.06285763778572
 30
0.0
 10
-20.27771336599666
 20
-4.801410586754407
 30
0.0
 10
-20.3069329487078
 20
-4.538237525389246
 30
0.0
 10
-20.35383779930772
 20
-4.302404211882307
 30
0.0
 10
-20.41515620151259
 20
-4.088426499273576
 30
0.0
 10
-20.4902471555523
 20
-3.890699567413554
 30
0.0
 10
-20.58051427194367
 20
-3.705510409742527
 30
0.0
 10
-20.6859459808533
 20
-3.534768840931163
 30
0.0
 10
-20.80612663460114
 20
-3.381392651954577
 30
0.0
 10
-20.91766750006056
 20
-3.271393674509484
 30
0.0
 10
-21.01564406526267
 20
-3.193044613908142
 30
0.0
 10
-21.10025202938971
 20
-3.137286911228541
 30
0.0
 10
-21.16413361428286
 20
-3.099665329693184
 30
0.0
 10
-21.20082986352908
 20
-3.08527915403243
 30
0.0
 10
-21.20392596983267
 20
-3.084065375238608
 30
0.0
  0
SPLINE
  5
70
330
1F
100
AcDbEntity
  8
0
  6
Continuous
 62
     7
370
    25
100
AcDbSpline
210
0.0
220
0.0
230
1.0
 70
     8
 71
     3
 72
    48
 73
    44
 74
     0
 42
0.00000001
 43
0.00000001
 40
0.0
 40
0.0
 40
0.0
 40
0.0
 40
0.0150157945512302
 40
0.039449490907887
 40
0.0639095114498599
 40
0.0884535881453169
 40
0.1131228565617559
 40
0.1379367287614185
 40
0.1628933658283541
 40
0.1879747357377572
 40
0.2131538888864271
 40
0.2384018700628121
 40
0.2636925921123248
 40
0.2890052786847195
 40
0.3143236539586907
 40
0.339637110817647
 40
0.3649412975262594
 40
0.3902346350489659
 40
0.4155174707341438
 40
0.4407914427856707
 40
0.466059027819916
 40
0.4913232284293757
 40
0.5165873579902316
 40
0.5418544459631202
 40
0.5671272796885046
 40
0.5924093101244162
 40
0.6177037790471097
 40
0.6430135126480166
 40
0.6683406210296993
 40
0.693686057253743
 40
0.7190489851061755
 40
0.7444259111771964
 40
0.7698081782399532
 40
0.7951795914777133
 40
0.8205195071811839
 40
0.8458007300302489
 40
0.8709912602612041
 40
0.8960587431135807
 40
0.9209776544416067
 40
0.9457377038144761
 40
0.9703504622191857
 40
0.9948511073617496
 40
1.0
 40
1.0
 40
1.0
 40
1.0
 10
-21.99204591816662
 20
-3.001600775716669
 30
0.0
 10
-22.0135396845439
 20
-3.001836048910998
 30
0.0
 10
-22.07000810107581
 20
-3.002454158576042
 30
0.0
 10
-22.1609673906279
 20
-3.0174255216961
 30
0.0
 10
-22.26404987018102
 20
-3.04488034577692
 30
0.0
 10
-22.36523017862123
 20
-3.084967408264249
 30
0.0
 10
-22.46397782893084
 20
-3.136814361009524
 30
0.0
 10
-22.5597257620109
 20
-3.200360976110539
 30
0.0
 10
-22.65188336164121
 20
-3.275232165111102
 30
0.0
 10
-22.73984761399232
 20
-3.361013346129321
 30
0.0
 10
-22.82302729682238
 20
-3.457166496544272
 30
0.0
 10
-22.90086473057535
 20
-3.563062056601277
 30
0.0
 10
-22.97285086657895
 20
-3.677991032949372
 30
0.0
 10
-23.03853088511715
 20
-3.801182934502109
 30
0.0
 10
-23.09750576160554
 20
-3.931820304483855
 30
0.0
 10
-23.14943161705144
 20
-4.069052650803131
 30
0.0
 10
-23.19401620485624
 20
-4.212005862485602
 30
0.0
 10
-23.23101458582281
 20
-4.359786031823353
 30
0.0
 10
-23.26022580074666
 20
-4.511478497006951
 30
0.0
 10
-23.28149226535728
 20
-4.666151224135064
 30
0.0
 10
-23.29469967293772
 20
-4.822858600445746
 30
0.0
 10
-23.29977710750272
 20
-4.980645689399928
 30
0.0
 10
-23.29669715668954
 20
-5.138551958849173
 30
0.0
 10
-23.28547613420318
 20
-5.295615642044264
 30
0.0
 10
-23.26617396100185
 20
-5.450880460108393
 30
0.0
 10
-23.23889324307314
 20
-5.603401662552383
 30
0.0
 10
-23.2037778679673
 20
-5.752251270793478
 30
0.0
 10
-23.16101198621038
 20
-5.896520797966772
 30
0.0
 10
-23.11081890911668
 20
-6.035324850480549
 30
0.0
 10
-23.05346033126833
 20
-6.167803974327867
 30
0.0
 10
-22.98923632337278
 20
-6.293126689023311
 30
0.0
 10
-22.91848798084446
 20
-6.410488746743987
 30
0.0
 10
-22.84160394766616
 20
-6.519111672565422
 30
0.0
 10
-22.7590259552647
 20
-6.618250400104262
 30
0.0
 10
-22.67125573095112
 20
-6.707201240451884
 30
0.0
 10
-22.57885968632193
 20
-6.785319348064599
 30
0.0
 10
-22.48247500231634
 20
-6.852023019706863
 30
0.0
 10
-22.38280296922075
 20
-6.906861138778637
 30
0.0
 10
-22.28059658781757
 20
-6.949374233085309
 30
0.0
 10
-22.17661055665507
 20
-6.979705895621494
 30
0.0
 10
-22.07164042122023
 20
-6.996384739794631
 30
0.0
 10
-21.99387042218363
 20
-7.002369486230753
 30
0.0
 10
-21.95152022214629
 20
-6.998944683964482
 30
0.0
 10
-21.94416575224484
 20
-6.99834993812707
 30
0.0
  0
SPLINE
  5
72
330
1F
100
AcDbEntity
  8
0
  6
Continuous
 62
     7
370
    25
100
AcDbSpline
210
0.0
220
0.0
230
1.0
 70
     8
 71
     3
 72
    12
 73
     8
 74
     0
 42
0.00000001
 43
0.00000001
 40
0.0
 40
0.0
 40
0.0
 40
0.0
 40
0.1324522922312592
 40
0.4078864154275921
 40
0.6836172836925097
 40
0.9602956931152268
 40
1.0
 40
1.0
 40
1.0
 40
1.0
 10
-22.75265061870593
 20
-6.997973967361066
 30
0.0
 10
-22.7358348431522
 20
-6.997739448843552
 30
0.0
 10
-22.68405071546594
 20
-6.997017249809839
 30
0.0
 10
-22.59769614645148
 20
-6.982672622879813
 30
0.0
 10
-22.49484791046571
 20
-6.954459617060466
 30
0.0
 10
-22.42207659374758
 20
-6.928172714080906
 30
0.0
 10
-22.38474026509729
 20
-6.90828942924458
 30
0.0
 10
-22.38005475930234
 20
-6.905794185344306
 30
0.0
  0
SPLINE
  5
73
330
1F
100
AcDbEntity
  8
0
  6
Continuous
 62
     7
370
    25
100
AcDbSpline
210
0.0
220
0.0
230
1.0
 70
     8
 71
     3
 72
    11
 73
     7
 74
     0
 42
0.00000001
 43
0.00000001
 40
0.0
 40
0.0
 40
0.0
 40
0.0
 40
0.0822215234324529
 40
0.4309529028206812
 40
0.7776097717052511
 40
1.0
 40
1.0
 40
1.0
 40
1.0
 10
-22.45481499026057
 20
-3.0625
 30
0.0
 10
-22.46277174923813
 20
-3.059097428467409
 30
0.0
 10
-22.50447601638466
 20
-3.041263313775657
 30
0.0
 10
-22.58223926351804
 20
-3.021431053170347
 30
0.0
 10
-22.67467043522003
 20
-3.00391172464843
 30
0.0
 10
-22.73250850878212
 20
-3.002412391955097
 30
0.0
 10
-22.75511230106463
 20
-3.001826435288926
 30
0.0
  0
SPLINE
  5
77
330
1F
100
AcDbEntity
  8
0
  6
Continuous
 62
     7
370
    25
100
AcDbSpline
210
0.0
220
0.0
230
1.0
 70
     8
 71
     3
 72
    36
 73
    32
 74
     0
 42
0.00000001
 43
0.00000001
 40
0.0
 40
0.0
 40
0.0
 40
0.0
 40
0.0445176008103934
 40
0.0904317433519068
 40
0.1380068366703886
 40
0.1755686480059325
 40
0.2148283545868958
 40
0.2557834506107149
 40
0.2984311805462689
 40
0.3427691518198194
 40
0.3840063257536467
 40
0.4173233629774219
 40
0.442725200544839
 40
0.4552651528483389
 40
0.4652399754703212
 40
0.4791367150427551
 40
0.4981772357016596
 40
0.5223601607612315
 40
0.5503787813942682
 40
0.5890342272852632
 40
0.622552304228584
 40
0.6510825987804184
 40
0.6775222429666775
 40
0.7112497162777448
 40
0.7471624507769024
 40
0.7906803593685378
 40
0.8283499521274577
 40
0.8703292165861635
 40
0.9162743907479879
 40
0.9620822337415255
 40
1.0
 40
1.0
 40
1.0
 40
1.0
 10
-23.18370230541017
 20
-3.000000000000002
 30
0.0
 10
-23.23882696234397
 20
-3.003432549014232
 30
0.0
 10
-23.35080556715314
 20
-3.010405328001575
 30
0.0
 10
-23.51496464069759
 20
-3.062914480842006
 30
0.0
 10
-23.66343366513584
 20
-3.138237169270742
 30
0.0
 10
-23.79794568980605
 20
-3.235748419357907
 30
0.0
 10
-23.91822443789501
 20
-3.348250940312435
 30
0.0
 10
-24.03451843684408
 20
-3.48653166204778
 30
0.0
 10
-24.14408038819272
 20
-3.651210744207099
 30
0.0
 10
-24.24028704181946
 20
-3.835535980777371
 30
0.0
 10
-24.31577273666246
 20
-4.021521417474452
 30
0.0
 10
-24.36845545105085
 20
-4.187020221468837
 30
0.0
 10
-24.39966870391575
 20
-4.309253296847622
 30
0.0
 10
-24.41782400284131
 20
-4.392965570797077
 30
0.0
 10
-24.43033048236931
 20
-4.457187030537225
 30
0.0
 10
-24.44344634662238
 20
-4.533572466799532
 30
0.0
 10
-24.45789713328362
 20
-4.636395992935417
 30
0.0
 10
-24.47092480075793
 20
-4.7661236552326
 30
0.0
 10
-24.47980429644284
 20
-4.933024521842528
 30
0.0
 10
-24.47858127354717
 20
-5.117888360529905
 30
0.0
 10
-24.46540099756456
 20
-5.302458516039235
 30
0.0
 10
-24.44487805821221
 20
-5.462458608805806
 30
0.0
 10
-24.41648523128681
 20
-5.619941085815327
 30
0.0
 10
-24.37664678121797
 20
-5.786146169591833
 30
0.0
 10
-24.31771881148604
 20
-5.974067946898335
 30
0.0
 10
-24.24324439688449
 20
-6.15724714051231
 30
0.0
 10
-24.15148580483462
 20
-6.33489633632956
 30
0.0
 10
-24.04558104952882
 20
-6.499307901846258
 30
0.0
 10
-23.91971404283495
 20
-6.651063543890047
 30
0.0
 10
-23.78698893763705
 20
-6.776354399091382
 30
0.0
 10
-23.69394072757131
 20
-6.835431380596332
 30
0.0
 10
-23.65180092934753
 20
-6.862186243247954
 30
0.0
  0
SPLINE
  5
120
330
1F
100
AcDbEntity
  8
0
  6
Continuous
 62
     7
370
    25
100
AcDbSpline
210
0.0
220
0.0
230
1.0
 70
    11
 71
     3
 72
    70
 73
    66
 74
     0
 42
0.00000001
 43
0.00000001
 40
0.0
 40
0.0
 40
0.0
 40
0.0
 40
0.03125
 40
0.03125
 40
0.0625
 40
0.0625
 40
0.09375
 40
0.09375
 40
0.125
 40
0.125
 40
0.15625
 40
0.15625
 40
0.1875
 40
0.1875
 40
0.21875
 40
0.21875
 40
0.25
 40
0.25
 40
0.28125
 40
0.28125
 40
0.3125
 40
0.3125
 40
0.34375
 40
0.34375
 40
0.375
 40
0.375
 40
0.40625
 40
0.40625
 40
0.4375
 40
0.4375
 40
0.46875
 40
0.46875
 40
0.5
 40
0.5
 40
0.53125
 40
0.53125
 40
0.5625
 40
0.5625
 40
0.59375
 40
0.59375
 40
0.625
 40
0.625
 40
0.65625
 40
0.65625
 40
0.6875
 40
0.6875
 40
0.71875
 40
0.71875
 40
0.75
 40
0.75
 40
0.78125
 40
0.78125
 40
0.8125
 40
0.8125
 40
0.84375
 40
0.84375
 40
0.875
 40
0.875
 40
0.90625
 40
0.90625
 40
0.9375
 40
0.9375
 40
0.96875
 40
0.96875
 40
1.0
 40
1.0
 40
1.0
 40
1.0
 10
20.51507200494062
 20
-5.000000000000003
 30
0.0
 10
20.51507200494062
 20
-4.901825229586121
 30
0.0
 10
20.52128720307263
 20
-4.803652886704183
 30
0.0
 10
20.54590975784981
 20
-4.611076147247426
 30
0.0
 10
20.56431650566491
 20
-4.516676512446224
 30
0.0
 10
20.61261538425221
 20
-4.335273190458506
 30
0.0
 10
20.64250632075412
 20
-4.248273988763828
 30
0.0
 10
20.71262542432987
 20
-4.085015312177363
 30
0.0
 10
20.75285185759374
 20
-4.008759874120537
 30
0.0
 10
20.84209654833098
 20
-3.869919782319824
 30
0.0
 10
20.891112599086
 20
-3.807338561620945
 30
0.0
 10
20.99605325356785
 20
-3.698252601471417
 30
0.0
 10
21.05197526247057
 20
-3.65175055934625
 30
0.0
 10
21.16857907020049
 20
-3.576610843119886
 30
0.0
 10
21.22925798580902
 20
-3.547975026969054
 30
0.0
 10
21.35304392784666
 20
-3.509669131821255
 30
0.0
 10
21.41614789346624
 20
-3.499999999999999
 30
0.0
 10
21.54235894547461
 20
-3.499999999999999
 30
0.0
 10
21.60546291109418
 20
-3.509669131821255
 30
0.0
 10
21.72924885313182
 20
-3.547975026969054
 30
0.0
 10
21.78992776874035
 20
-3.576610843119891
 30
0.0
 10
21.90653157647028
 20
-3.65175055934625
 30
0.0
 10
21.96245358537168
 20
-3.698252601471199
 30
0.0
 10
22.06739423985614
 20
-3.807338561621164
 30
0.0
 10
22.11641029060849
 20
-3.869919782319728
 30
0.0
 10
22.20565498134846
 20
-4.008759874120629
 30
0.0
 10
22.24588141461125
 20
-4.085015312177372
 30
0.0
 10
22.3160005181864
 20
-4.248273988763819
 30
0.0
 10
22.34589145469054
 20
-4.335273190458401
 30
0.0
 10
22.39419033327403
 20
-4.516676512446325
 30
0.0
 10
22.41259708109111
 20
-4.611076147247462
 30
0.0
 10
22.4372196358681
 20
-4.803652886704153
 30
0.0
 10
22.44343483400022
 20
-4.901825229586829
 30
0.0
 10
22.44343483400022
 20
-5.098174770413171
 30
0.0
 10
22.4372196358681
 20
-5.196347113295843
 30
0.0
 10
22.41259708109111
 20
-5.388923852752539
 30
0.0
 10
22.39419033327579
 20
-5.483323487554353
 30
0.0
 10
22.34589145468876
 20
-5.664726809540913
 30
0.0
 10
22.31600051818639
 20
-5.751726011236858
 30
0.0
 10
22.24588141461125
 20
-5.914984687821947
 30
0.0
 10
22.20565498134848
 20
-5.991240125878694
 30
0.0
 10
22.11641029060847
 20
-6.130080217680954
 30
0.0
 10
22.06739423985526
 20
-6.19266143837791
 30
0.0
 10
21.96245358537253
 20
-6.301747398529719
 30
0.0
 10
21.90653157646902
 20
-6.348249440653431
 30
0.0
 10
21.78992776874159
 20
-6.423389156880429
 30
0.0
 10
21.72924885313234
 20
-6.452024973032148
 30
0.0
 10
21.60546291109365
 20
-6.490330868177548
 30
0.0
 10
21.54235894547514
 20
-6.500000000000001
 30
0.0
 10
21.4161478934657
 20
-6.500000000000001
 30
0.0
 10
21.35304392784543
 20
-6.490330868178907
 30
0.0
 10
21.22925798581024
 20
-6.45202497303078
 30
0.0
 10
21.16857907019924
 20
-6.423389156880429
 30
0.0
 10
21.05197526247182
 20
-6.348249440653436
 30
0.0
 10
20.9960532535683
 20
-6.301747398528365
 30
0.0
 10
20.89111259908556
 20
-6.192661438379274
 30
0.0
 10
20.84209654833136
 20
-6.130080217680771
 30
0.0
 10
20.75285185759337
 20
-5.991240125878882
 30
0.0
 10
20.71262542433017
 20
-5.914984687823328
 30
0.0
 10
20.64250632075384
 20
-5.751726011235482
 30
0.0
 10
20.61261538425072
 20
-5.664726809542456
 30
0.0
 10
20.5643165056664
 20
-5.483323487552819
 30
0.0
 10
20.54590975784993
 20
-5.38892385275281
 30
0.0
 10
20.52128720307252
 20
-5.19634711329558
 30
0.0
 10
20.51507200494062
 20
-5.098174770413884
 30
0.0
 10
20.51507200494062
 20
-5.000000000000003
 30
0.0
  0
SPLINE
  5
121
330
1F
100
AcDbEntity
  8
0
  6
Continuous
 62
     7
370
    25
100
AcDbSpline
210
0.0
220
0.0
230
1.0
 70
     8
 71
     3
 72
    10
 73
     6
 74
     0
 42
0.00000001
 43
0.00000001
 40
0.0
 40
0.0
 40
0.0
 40
0.0
 40
0.0810028329625488
 40
0.5405014164812745
 40
1.0
 40
1.0
 40
1.0
 40
1.0
 10
21.2142064885758
 20
-6.917027367874168
 30
0.0
 10
21.22353902151482
 20
-6.92208985893199
 30
0.0
 10
21.28581150123449
 20
-6.955869956338501
 30
0.0
 10
21.40708153398764
 20
-6.988449941523212
 30
0.0
 10
21.51903316123607
 20
-6.996149980507739
 30
0.0
 10
21.57500897486029
 20
-7.000000000000003
 30
0.0
  0
LWPOLYLINE
  5
123
330
1F
100
AcDbEntity
  8
0
  6
Continuous
 62
     7
370
    25
100
AcDbPolyline
 90
        3
 70
   128
 43
0.0
 10
22.0041766446
 20
-6.999559041
 10
22.0041053635
 20
-6.9995613669
 10
21.9771823075
 20
-7.0
  0
LWPOLYLINE
  5
124
330
1F
100
AcDbEntity
  8
0
  6
Continuous
 62
     7
370
    25
100
AcDbPolyline
 90
       20
 70
   128
 43
0.0
 10
21.4792534195
 20
-4.5625
 10
21.4918702882
 20
-4.5629405334
 10
21.5418306629
 20
-4.5734690384
 10
21.5897797535
 20
-4.5977065995
 10
21.6341764368
 20
-4.6348742015
 10
21.6735937668
 20
-4.6837772471
 10
21.7067648382
 20
-4.7428439521
 10
21.7326235054
 20
-4.8101758641
 10
21.7503386496
 20
-4.8836088801
 10
21.7593408914
 20
-4.9607828024
 10
21.7593408914
 20
-5.0392171976
 10
21.7503386496
 20
-5.1163911199
 10
21.7326235054
 20
-5.1898241359
 10
21.7067648382
 20
-5.2571560479
 10
21.6735937668
 20
-5.3162227529
 10
21.6341764368
 20
-5.3651257985
 10
21.5897797535
 20
-5.4022934005
 10
21.5418306629
 20
-5.4265309616
 10
21.4918702882
 20
-5.4370594666
 10
21.4792534195
 20
-5.4375
  0
LWPOLYLINE
  5
125
330
1F
100
AcDbEntity
  8
0
  6
Continuous
 62
     7
370
    25
100
AcDbPolyline
 90
       22
 70
   128
 43
0.0
 10
22.5825414038
 20
-3.2190664719
 10
22.5976205582
 20
-3.2293009649
 10
22.6921592668
 20
-3.3022360296
 10
22.7823898123
 20
-3.3873600728
 10
22.867664391
 20
-3.4840619523
 10
22.9473707798
 20
-3.5916474037
 10
23.0209367323
 20
-3.7093440247
 10
23.0878340868
 20
-3.8363068207
 10
23.1475825585
 20
-3.971624271
 10
23.1997531873
 20
-4.1143248735
 10
23.2439714178
 20
-4.2633841189
 10
23.2799197883
 20
-4.417731847
 10
23.3073402101
 20
-4.5762599288
 10
23.3260358199
 20
-4.7378302229
 10
23.3358723942
 20
-4.9012827468
 10
23.3367793117
 20
-5.0654440044
 10
23.3287500614
 20
-5.2291354113
 10
23.3118422888
 20
-5.3911817564
 10
23.286177382
 20
-5.5504196392
 10
23.2519396003
 20
-5.7057058225
 10
23.2093747517
 20
-5.8559254399
 10
23.1587884275
 20
-6.0
  0
LWPOLYLINE
  5
127
330
1F
100
AcDbEntity
  8
0
  6
Continuous
 62
     7
370
    25
100
AcDbPolyline
 90
       26
 70
   128
 43
0.0
 10
22.6666223063
 20
-3.0625
 10
22.7648524561
 20
-3.0685361489
 10
22.8696013541
 20
-3.0884065135
 10
22.9728929781
 20
-3.1220010306
 10
23.0739857531
 20
-3.1690785109
 10
23.1721538906
 20
-3.2293009649
 10
23.2666925991
 20
-3.3022360296
 10
23.3569231447
 20
-3.3873600728
 10
23.4421977233
 20
-3.4840619523
 10
23.5219041121
 20
-3.5916474037
 10
23.5954700646
 20
-3.7093440247
 10
23.6623674192
 20
-3.8363068207
 10
23.7221158908
 20
-3.971624271
 10
23.7742865196
 20
-4.1143248735
 10
23.8185047501
 20
-4.2633841189
 10
23.8544531207
 20
-4.417731847
 10
23.8818735424
 20
-4.5762599288
 10
23.9005691523
 20
-4.7378302229
 10
23.9104057265
 20
-4.9012827468
 10
23.911312644
 20
-5.0654440044
 10
23.9032833938
 20
-5.2291354113
 10
23.8863756211
 20
-5.3911817564
 10
23.8607107143
 20
-5.5504196392
 10
23.8264729327
 20
-5.7057058225
 10
23.7839080841
 20
-5.8559254399
 10
23.7333217598
 20
-6.0
  0
SPLINE
  5
12B
330
1F
100
AcDbEntity
  8
0
  6
Continuous
 62
     7
370
    25
100
AcDbSpline
210
0.0
220
0.0
230
1.0
 70
     8
 71
     3
 72
    22
 73
    18
 74
     0
 42
0.00000001
 43
0.00000001
 40
0.0
 40
0.0
 40
0.0
 40
0.0
 40
0.125
 40
0.125
 40
0.25
 40
0.25
 40
0.375
 40
0.375
 40
0.5
 40
0.5
 40
0.625
 40
0.625
 40
0.75
 40
0.75
 40
0.875
 40
0.875
 40
1.0
 40
1.0
 40
1.0
 40
1.0
 10
23.18370230541011
 20
-7.000000000000003
 30
0.0
 10
23.26784300674919
 20
-7.000000000000007
 30
0.0
 10
23.35198162758127
 20
-6.987107824236508
 30
0.0
 10
23.51702955028583
 20
-6.936033297376443
 30
0.0
 10
23.59793477110679
 20
-6.897852209171735
 30
0.0
 10
23.75340651473985
 20
-6.797665920873467
 30
0.0
 10
23.82796919328115
 20
-6.735663198036296
 30
0.0
 10
23.96789006592175
 20
-6.590215251173947
 30
0.0
 10
24.03324480026534
 20
-6.506773623569527
 30
0.0
 10
24.15223772124309
 20
-6.321653501176733
 30
0.0
 10
24.20587296560019
 20
-6.219979583758172
 30
0.0
 10
24.29936510369587
 20
-6.0023013483203
 30
0.0
 10
24.33921968570356
 20
-5.886302412715988
 30
0.0
 10
24.40361819048169
 20
-5.64443131674441
 30
0.0
 10
24.42816052090415
 20
-5.518565136996005
 30
0.0
 10
24.46099059394068
 20
-5.261796151068532
 30
0.0
 10
24.46927752478322
 20
-5.130899693879504
 30
0.0
 10
24.46927752478322
 20
-5.0
 30
0.0
  0
SPLINE
  5
12C
330
1F
100
AcDbEntity
  8
0
  6
Continuous
 62
     7
370
    25
100
AcDbSpline
210
0.0
220
0.0
230
1.0
 70
     8
 71
     3
 72
    10
 73
     6
 74
     0
 42
0.00000001
 43
0.00000001
 40
0.0
 40
0.0
 40
0.0
 40
0.0
 40
0.3583911235536125
 40
0.7167822471072254
 40
1.0
 40
1.0
 40
1.0
 40
1.0
 10
23.18370230541016
 20
-2.999999999999997
 30
0.0
 10
23.23975082235614
 20
-3.00349094737224
 30
0.0
 10
23.3518478562481
 20
-3.010472842116726
 30
0.0
 10
23.50631566537136
 20
-3.057253625851831
 30
0.0
 10
23.60063573278777
 20
-3.110915152011106
 30
0.0
 10
23.64227031504967
 20
-3.134602319401621
 30
0.0
  0
LWPOLYLINE
  5
12D
330
1F
100
AcDbEntity
  8
0
  6
Continuous
 62
     7
370
    25
100
AcDbPolyline
 90
       36
 70
   128
 43
0.0
 10
21.1827129514
 20
-5.0
 10
21.1872322657
 20
-4.9218813585
 10
21.2006449542
 20
-4.8462735145
 10
21.2225199221
 20
-4.7756065661
 10
21.2521540898
 20
-4.7121518074
 10
21.2885949909
 20
-4.6579487264
 10
21.3306713847
 20
-4.6147394548
 10
21.3770309015
 20
-4.5839127741
 10
21.4261835081
 20
-4.5664594792
 10
21.4765493993
 20
-4.5629405334
 10
21.526509774
 20
-4.5734690384
 10
21.5744588646
 20
-4.5977065995
 10
21.6188555479
 20
-4.6348742015
 10
21.658272878
 20
-4.6837772471
 10
21.6914439494
 20
-4.7428439521
 10
21.7173026165
 20
-4.8101758641
 10
21.7350177607
 20
-4.8836088801
 10
21.7440200025
 20
-4.9607828024
 10
21.7440200025
 20
-5.0392171976
 10
21.7350177607
 20
-5.1163911199
 10
21.7173026165
 20
-5.1898241359
 10
21.6914439494
 20
-5.2571560479
 10
21.658272878
 20
-5.3162227529
 10
21.6188555479
 20
-5.3651257985
 10
21.5744588646
 20
-5.4022934005
 10
21.526509774
 20
-5.4265309616
 10
21.4765493993
 20
-5.4370594666
 10
21.4261835081
 20
-5.4335405208
 10
21.3770309015
 20
-5.4160872259
 10
21.3306713847
 20
-5.3852605452
 10
21.2885949909
 20
-5.3420512736
 10
21.2521540898
 20
-5.2878481926
 10
21.2225199221
 20
-5.2243934339
 10
21.2006449542
 20
-5.1537264855
 10
21.1872322657
 20
-5.0781186415
 10
21.1827129514
 20
-5.0
  0
SPLINE
  5
12E
330
1F
100
AcDbEntity
  8
0
  6
Continuous
 62
     7
370
    25
100
AcDbSpline
210
0.0
220
0.0
230
1.0
 70
    11
 71
     3
 72
    71
 73
    67
 74
     0
 42
0.00000001
 43
0.00000001
 40
0.0
 40
0.0
 40
0.0
 40
0.0
 40
0.0156244154855505
 40
0.0312499943588855
 40
0.046873831057168
 40
0.062499994358811
 40
0.0781238310589339
 40
0.09374999435874
 40
0.1093738310605066
 40
0.1249999943586636
 40
0.1406238310610377
 40
0.1562499943585824
 40
0.171873831061427
 40
0.1874999943585046
 40
0.2031238310616581
 40
0.2187499943584221
 40
0.234373831060826
 40
0.2499999943583339
 40
0.2656238310598464
 40
0.2812499943582497
 40
0.2968738310607165
 40
0.3124999943581797
 40
0.3281238310601877
 40
0.3437499943580817
 40
0.359373831060503
 40
0.3749999943580202
 40
0.390623831063824
 40
0.4062499943579513
 40
0.4218738310625336
 40
0.4374999943578445
 40
0.4531238310599011
 40
0.4687499943577632
 40
0.4843738310601848
 40
0.4999999943576848
 40
0.5156238310601905
 40
0.5312499943576006
 40
0.5468738310608618
 40
0.5624999943575284
 40
0.5781238310647285
 40
0.5937499943574753
 40
0.6093738310636689
 40
0.6249999943573559
 40
0.6406238310601482
 40
0.6562499943572785
 40
0.6718738310599268
 40
0.6874999943571909
 40
0.7031238310597391
 40
0.718749994357114
 40
0.7343738310590145
 40
0.7499999943570215
 40
0.7656238310595174
 40
0.7812499943569562
 40
0.7968738310602653
 40
0.8124999943568657
 40
0.8281238310589558
 40
0.8437499943567812
 40
0.8593738310602514
 40
0.8749999943567153
 40
0.8906238310606371
 40
0.906249994356622
 40
0.9218738310593767
 40
0.9374999943565406
 40
0.9531238310590773
 40
0.9687499943564564
 40
0.9843744155720655
 40
1.0
 40
1.0
 40
1.0
 40
1.0
 10
-20.51507200494063
 20
-5.000000000000003
 30
0.0
 10
-20.51507218977626
 20
-4.950913338295424
 30
0.0
 10
-20.51815033294362
 20
-4.852736439023195
 30
0.0
 10
-20.53208832946197
 20
-4.706902783450157
 30
0.0
 10
-20.55508391481876
 20
-4.563866387239318
 30
0.0
 10
-20.5870423390542
 20
-4.425065383875245
 30
0.0
 10
-20.62753340876897
 20
-4.291754951020446
 30
0.0
 10
-20.67628367893717
 20
-4.165320589393133
 30
0.0
 10
-20.73271405935013
 20
-4.04686098193485
 30
0.0
 10
-20.79638268645758
 20
-3.937652054673208
 30
0.0
 10
-20.86658380133613
 20
-3.838595611299347
 30
0.0
 10
-20.94272403262955
 20
-3.750808955588367
 30
0.0
 10
-21.02399809333413
 20
-3.674962360034989
 30
0.0
 10
-21.10968390220131
 20
-3.611971567777499
 30
0.0
 10
-21.19890759221829
 20
-3.56224956218922
 30
0.0
 10
-21.29084612105915
 20
-3.526475334202357
 30
0.0
 10
-21.38459062402266
 20
-3.504788707369826
 30
0.0
 10
-21.47924872673222
 20
-3.497605827171321
 30
0.0
 10
-21.57391149396817
 20
-3.504787983999521
 30
0.0
 10
-21.66765151274788
 20
-3.526472485649175
 30
0.0
 10
-21.75959470719964
 20
-3.562247419878919
 30
0.0
 10
-21.84881426569468
 20
-3.611965980139741
 30
0.0
 10
-21.93450456195689
 20
-3.67495888111602
 30
0.0
 10
-22.01577500257192
 20
-3.750800843595111
 30
0.0
 10
-22.09191937062061
 20
-3.838590929453412
 30
0.0
 10
-22.16211751590069
 20
-3.937641730080907
 30
0.0
 10
-22.22578977037004
 20
-4.046855277059306
 30
0.0
 10
-22.28221794495512
 20
-4.165308449100307
 30
0.0
 10
-22.33097119680741
 20
-4.291748441830063
 30
0.0
 10
-22.37146089759654
 20
-4.425051896305159
 30
0.0
 10
-22.40342158671593
 20
-4.563859316779585
 30
0.0
 10
-22.42641681721206
 20
-4.706890276703883
 30
0.0
 10
-22.44035671223748
 20
-4.852730833604585
 30
0.0
 10
-22.44497377862977
 20
-4.999992699398538
 30
0.0
 10
-22.44035717720982
 20
-5.147261821904018
 30
0.0
 10
-22.42641864822656
 20
-5.293095402652295
 30
0.0
 10
-22.40342296376672
 20
-5.43613362097562
 30
0.0
 10
-22.37146448925477
 20
-5.574934613962667
 30
0.0
 10
-22.33097343301305
 20
-5.708245049589115
 30
0.0
 10
-22.28222315922845
 20
-5.834679410479651
 30
0.0
 10
-22.22579277978592
 20
-5.953139018113931
 30
0.0
 10
-22.16212415242208
 20
-6.062347945326994
 30
0.0
 10
-22.09192303761872
 20
-6.161404388704622
 30
0.0
 10
-22.01578280630708
 20
-6.249191044411432
 30
0.0
 10
-21.93450874560763
 20
-6.325037639963565
 30
0.0
 10
-21.84882293674078
 20
-6.388028432221583
 30
0.0
 10
-21.75959924672396
 20
-6.437750437811025
 30
0.0
 10
-21.66766071788386
 20
-6.473524665796909
 30
0.0
 10
-21.57391621491915
 20
-6.495211292629488
 30
0.0
 10
-21.47925811220768
 20
-6.502394172828316
 30
0.0
 10
-21.38459534497051
 20
-6.495212016003062
 30
0.0
 10
-21.29085532618933
 20
-6.473527514349702
 30
0.0
 10
-21.19891213174003
 20
-6.437752580117445
 30
0.0
 10
-21.10969257324469
 20
-6.388034019859258
 30
0.0
 10
-21.02400227698219
 20
-6.325041118885702
 30
0.0
 10
-20.942731836371
 20
-6.249199156401982
 30
0.0
 10
-20.86658746830421
 20
-6.161409070547021
 30
0.0
 10
-20.79638932309578
 20
-6.06235826991005
 30
0.0
 10
-20.73271706837068
 20
-5.95314472298506
 30
0.0
 10
-20.67628889475296
 20
-5.834691550751632
 30
0.0
 10
-20.62753563928551
 20
-5.708251558765773
 30
0.0
 10
-20.58704595197371
 20
-5.57494810150049
 30
0.0
 10
-20.55508521256461
 20
-5.436140691421319
 30
0.0
 10
-20.53208988301168
 20
-5.293107909093942
 30
0.0
 10
-20.5181494552638
 20
-5.14726742708003
 30
0.0
 10
-20.51507182009117
 20
-5.049090334128642
 30
0.0
 10
-20.51507200494063
 20
-5.000000000000002
 30
0.0
  0
SPLINE
  5
12F
330
1F
100
AcDbEntity
  8
0
  6
Continuous
 62
     7
370
    25
100
AcDbSpline
210
0.0
220
0.0
230
1.0
 70
     8
 71
     3
 72
    10
 73
     6
 74
     0
 42
0.00000001
 43
0.00000001
 40
0.0
 40
0.0
 40
0.0
 40
0.0
 40
0.4594985835176866
 40
0.9189971670353735
 40
1.0
 40
1.0
 40
1.0
 40
1.0
 10
-21.57500897486029
 20
-2.999999999999997
 30
0.0
 10
-21.51903316123608
 20
-3.003850019492261
 30
0.0
 10
-21.40708153398763
 20
-3.01155005847678
 30
0.0
 10
-21.28581150123423
 20
-3.044130043661613
 30
0.0
 10
-21.22353902151429
 20
-3.077910141068277
 30
0.0
 10
-21.21420648857502
 20
-3.082972632126243
 30
0.0
  0
LWPOLYLINE
  5
131
330
1F
100
AcDbEntity
  8
0
  6
Continuous
 62
     7
370
    25
100
AcDbPolyline
 90
       20
 70
   128
 43
0.0
 10
-21.4792534195
 20
-4.5625
 10
-21.4918702882
 20
-4.5629405334
 10
-21.5418306629
 20
-4.5734690384
 10
-21.5897797535
 20
-4.5977065995
 10
-21.6341764368
 20
-4.6348742015
 10
-21.6735937668
 20
-4.6837772471
 10
-21.7067648382
 20
-4.7428439521
 10
-21.7326235054
 20
-4.8101758641
 10
-21.7503386496
 20
-4.8836088801
 10
-21.7593408914
 20
-4.9607828024
 10
-21.7593408914
 20
-5.0392171976
 10
-21.7503386496
 20
-5.1163911199
 10
-21.7326235054
 20
-5.1898241359
 10
-21.7067648382
 20
-5.2571560479
 10
-21.6735937668
 20
-5.3162227529
 10
-21.6341764368
 20
-5.3651257985
 10
-21.5897797535
 20
-5.4022934005
 10
-21.5418306629
 20
-5.4265309616
 10
-21.4918702882
 20
-5.4370594666
 10
-21.4792534195
 20
-5.4375
  0
LWPOLYLINE
  5
133
330
1F
100
AcDbEntity
  8
0
  6
Continuous
 62
     7
370
    25
100
AcDbPolyline
 90
       26
 70
   128
 43
0.0
 10
-22.6666223063
 20
-3.0625
 10
-22.7648524561
 20
-3.0685361489
 10
-22.8696013541
 20
-3.0884065135
 10
-22.9728929781
 20
-3.1220010306
 10
-23.0739857531
 20
-3.1690785109
 10
-23.1721538906
 20
-3.2293009649
 10
-23.2666925991
 20
-3.3022360296
 10
-23.3569231447
 20
-3.3873600728
 10
-23.4421977233
 20
-3.4840619523
 10
-23.5219041121
 20
-3.5916474037
 10
-23.5954700646
 20
-3.7093440247
 10
-23.6623674192
 20
-3.8363068207
 10
-23.7221158908
 20
-3.971624271
 10
-23.7742865196
 20
-4.1143248735
 10
-23.8185047501
 20
-4.2633841189
 10
-23.8544531207
 20
-4.417731847
 10
-23.8818735424
 20
-4.5762599288
 10
-23.9005691523
 20
-4.7378302229
 10
-23.9104057265
 20
-4.9012827468
 10
-23.911312644
 20
-5.0654440044
 10
-23.9032833938
 20
-5.2291354113
 10
-23.8863756211
 20
-5.3911817564
 10
-23.8607107143
 20
-5.5504196392
 10
-23.8264729327
 20
-5.7057058225
 10
-23.7839080841
 20
-5.8559254399
 10
-23.7333217598
 20
-6.0
  0
LWPOLYLINE
  5
134
330
1F
100
AcDbEntity
  8
0
  6
Continuous
 62
     7
370
    25
100
AcDbPolyline
 90
       22
 70
   128
 43
0.0
 10
-22.5790436747
 20
-3.2167449862
 10
-22.5976205582
 20
-3.2293009649
 10
-22.6921592668
 20
-3.3022360296
 10
-22.7823898123
 20
-3.3873600728
 10
-22.867664391
 20
-3.4840619523
 10
-22.9473707798
 20
-3.5916474037
 10
-23.0209367323
 20
-3.7093440247
 10
-23.0878340868
 20
-3.8363068207
 10
-23.1475825585
 20
-3.971624271
 10
-23.1997531873
 20
-4.1143248735
 10
-23.2439714178
 20
-4.2633841189
 10
-23.2799197883
 20
-4.417731847
 10
-23.3073402101
 20
-4.5762599288
 10
-23.3260358199
 20
-4.7378302229
 10
-23.3358723942
 20
-4.9012827468
 10
-23.3367793117
 20
-5.0654440044
 10
-23.3287500614
 20
-5.2291354113
 10
-23.3118422888
 20
-5.3911817564
 10
-23.286177382
 20
-5.5504196392
 10
-23.2519396003
 20
-5.7057058225
 10
-23.2093747517
 20
-5.8559254399
 10
-23.1587884275
 20
-6.0
  0
LWPOLYLINE
  5
137
330
1F
100
AcDbEntity
  8
0
  6
Continuous
 62
     7
370
    25
100
AcDbPolyline
 90
        3
 70
   128
 43
0.0
 10
-22.7545346357
 20
-6.999559041
 10
-22.7546059167
 20
-6.9995613669
 10
-22.7815289728
 20
-7.0
  0
SPLINE
  5
138
330
1F
100
AcDbEntity
  8
0
  6
Continuous
 62
     7
370
    25
100
AcDbSpline
210
0.0
220
0.0
230
1.0
 70
     8
 71
     3
 72
    10
 73
     6
 74
     0
 42
0.00000001
 43
0.00000001
 40
0.0
 40
0.0
 40
0.0
 40
0.0
 40
0.2832177528920957
 40
0.6416088764460479
 40
1.0
 40
1.0
 40
1.0
 40
1.0
 10
-23.64227031504925
 20
-6.865397680598603
 30
0.0
 10
-23.60063573278749
 20
-6.889084847989039
 30
0.0
 10
-23.50631566537121
 20
-6.942746374148221
 30
0.0
 10
-23.3518478562481
 20
-6.989527157883265
 30
0.0
 10
-23.23975082235614
 20
-6.996509052627756
 30
0.0
 10
-23.18370230541016
 20
-7.000000000000003
 30
0.0
  0
LWPOLYLINE
  5
139
330
1F
100
AcDbEntity
  8
0
  6
Continuous
 62
     7
370
    25
100
AcDbPolyline
 90
       13
 70
   128
 43
0.0
 10
-23.1837023054
 20
-3.0
 10
-23.3515035436
 20
-3.0171102773
 10
-23.5164336561
 20
-3.0681483474
 10
-23.6756706429
 20
-3.152240935
 10
-23.8264899151
 20
-3.2679491924
 10
-23.9663109131
 20
-3.4132933194
 10
-24.0927412608
 20
-3.5857864376
 10
-24.2036176999
 20
-3.782477142
 10
-24.2970431039
 20
-4.0
 10
-24.3714189381
 20
-4.2346331353
 10
-24.4254726114
 20
-4.4823619098
 10
-24.4582792506
 20
-4.7389476156
 10
-24.4692775248
 20
-5.0
  0
LWPOLYLINE
  5
13A
330
1F
100
AcDbEntity
  8
0
  6
Continuous
 62
     7
370
    25
100
AcDbPolyline
 90
       36
 70
   128
 43
0.0
 10
-21.1827129514
 20
-5.0
 10
-21.1872322657
 20
-4.9218813585
 10
-21.2006449542
 20
-4.8462735145
 10
-21.2225199221
 20
-4.7756065661
 10
-21.2521540898
 20
-4.7121518074
 10
-21.2885949909
 20
-4.6579487264
 10
-21.3306713847
 20
-4.6147394548
 10
-21.3770309015
 20
-4.5839127741
 10
-21.4261835081
 20
-4.5664594792
 10
-21.4765493993
 20
-4.5629405334
 10
-21.526509774
 20
-4.5734690384
 10
-21.5744588646
 20
-4.5977065995
 10
-21.6188555479
 20
-4.6348742015
 10
-21.658272878
 20
-4.6837772471
 10
-21.6914439494
 20
-4.7428439521
 10
-21.7173026165
 20
-4.8101758641
 10
-21.7350177607
 20
-4.8836088801
 10
-21.7440200025
 20
-4.9607828024
 10
-21.7440200025
 20
-5.0392171976
 10
-21.7350177607
 20
-5.1163911199
 10
-21.7173026165
 20
-5.1898241359
 10
-21.6914439494
 20
-5.2571560479
 10
-21.658272878
 20
-5.3162227529
 10
-21.6188555479
 20
-5.3651257985
 10
-21.5744588646
 20
-5.4022934005
 10
-21.526509774
 20
-5.4265309616
 10
-21.4765493993
 20
-5.4370594666
 10
-21.4261835081
 20
-5.4335405208
 10
-21.3770309015
 20
-5.4160872259
 10
-21.3306713847
 20
-5.3852605452
 10
-21.2885949909
 20
-5.3420512736
 10
-21.2521540898
 20
-5.2878481926
 10
-21.2225199221
 20
-5.2243934339
 10
-21.2006449542
 20
-5.1537264855
 10
-21.1872322657
 20
-5.0781186415
 10
-21.1827129514
 20
-5.0
  0
SPLINE
  5
171
330
1F
100
AcDbEntity
  8
0
  6
Continuous
 62
     7
370
    25
100
AcDbSpline
210
0.0
220
0.0
230
1.0
 70
     8
 71
     3
 72
    38
 73
    34
 74
     0
 42
0.00000001
 43
0.00000001
 40
0.0
 40
0.0
 40
0.0
 40
0.0
 40
0.0625
 40
0.0625
 40
0.125
 40
0.125
 40
0.1875
 40
0.1875
 40
0.25
 40
0.25
 40
0.3125
 40
0.3125
 40
0.375
 40
0.375
 40
0.4375
 40
0.4375
 40
0.5
 40
0.5
 40
0.5625
 40
0.5625
 40
0.625
 40
0.625
 40
0.6875
 40
0.6875
 40
0.75
 40
0.75
 40
0.8125
 40
0.8125
 40
0.875
 40
0.875
 40
0.9375
 40
0.9375
 40
1.0
 40
1.0
 40
1.0
 40
1.0
 10
21.57500897484725
 20
-2.999999999999997
 30
0.0
 10
21.65914967618525
 20
-2.999999999998669
 30
0.0
 10
21.74328829701231
 20
-3.01289217575885
 30
0.0
 10
21.90833621973117
 20
-3.063966702620804
 30
0.0
 10
21.98924144054305
 20
-3.102147790820594
 30
0.0
 10
22.14471318418283
 20
-3.202334079120668
 30
0.0
 10
22.21927586271893
 20
-3.264336801952151
 30
0.0
 10
22.35919673536666
 20
-3.409784748819331
 30
0.0
 10
22.42455146970501
 20
-3.493226376415604
 30
0.0
 10
22.54354439068988
 20
-3.678346498816664
 30
0.0
 10
22.59717963504264
 20
-3.780020416225586
 30
0.0
 10
22.69067177314372
 20
-3.997698651672768
 30
0.0
 10
22.73052635514854
 20
-4.11369758726673
 30
0.0
 10
22.79492485993074
 20
-4.355568683249422
 30
0.0
 10
22.81946719035146
 20
-4.481434862985917
 30
0.0
 10
22.85229726339075
 20
-4.73820384892711
 30
0.0
 10
22.86058419423292
 20
-4.869100306105164
 30
0.0
 10
22.86058419423378
 20
-5.130899693874463
 30
0.0
 10
22.85229726339245
 20
-5.261796151052648
 30
0.0
 10
22.81946719035487
 20
-5.518565136994362
 30
0.0
 10
22.79492485993496
 20
-5.644431316731245
 30
0.0
 10
22.73052635515435
 20
-5.886302412714957
 30
0.0
 10
22.69067177315043
 20
-6.002301348309233
 30
0.0
 10
22.59717963505049
 20
-6.219979583758539
 30
0.0
 10
22.54354439069963
 20
-6.32165350116629
 30
0.0
 10
22.42455146971378
 20
-6.506773623572643
 30
0.0
 10
22.35919673537686
 20
-6.590215251168479
 30
0.0
 10
22.21927586273053
 20
-6.735663198037399
 30
0.0
 10
22.14471318419377
 20
-6.797665920870844
 30
0.0
 10
21.98924144055631
 20
-6.897852209172308
 30
0.0
 10
21.9083362197443
 20
-6.936033297373768
 30
0.0
 10
21.74328829702488
 20
-6.987107824238628
 30
0.0
 10
21.65914967620084
 20
-6.999999999999994
 30
0.0
 10
21.57500897486035
 20
-7.000000000000003
 30
0.0
  0
LWPOLYLINE
  5
172
330
1F
100
AcDbEntity
  8
0
  6
Continuous
 62
     7
370
    25
100
AcDbPolyline
 90
       39
 70
   128
 43
0.0
 10
22.0018782195
 20
-3.0003690585
 10
22.0041053635
 20
-3.0004386331
 10
22.1115615096
 20
-3.0109562093
 10
22.2180750821
 20
-3.0354254985
 10
22.3228989649
 20
-3.0736748664
 10
22.4252978937
 20
-3.125436021
 10
22.5245536137
 20
-3.1903458951
 10
22.6199699172
 20
-3.2679491924
 10
22.7108775275
 20
-3.3577015817
 10
22.796638793
 20
-3.4589735144
 10
22.87665216
 20
-3.5710546407
 10
22.9503563922
 20
-3.693158792
 10
23.0172345075
 20
-3.8244294954
 10
23.0768174039
 20
-3.9639459813
 10
23.1286871502
 20
-4.1107296416
 10
23.1724799173
 20
-4.2637508946
 10
23.2078885305
 20
-4.4219364061
 10
23.2346646239
 20
-4.5841766184
 10
23.2526203823
 20
-4.7493335329
 10
23.261629859
 20
-4.9162486925
 10
23.261629859
 20
-5.0837513075
 10
23.2526203823
 20
-5.2506664671
 10
23.2346646239
 20
-5.4158233816
 10
23.2078885305
 20
-5.5780635939
 10
23.1724799173
 20
-5.7362491054
 10
23.1286871502
 20
-5.8892703584
 10
23.0768174039
 20
-6.0360540187
 10
23.0172345075
 20
-6.1755705046
 10
22.9503563922
 20
-6.306841208
 10
22.87665216
 20
-6.4289453593
 10
22.796638793
 20
-6.5410264856
 10
22.7108775275
 20
-6.6422984183
 10
22.6199699172
 20
-6.7320508076
 10
22.5245536137
 20
-6.8096541049
 10
22.4252978937
 20
-6.874563979
 10
22.3228989649
 20
-6.9263251336
 10
22.2180750821
 20
-6.9645745015
 10
22.1115615096
 20
-6.9890437907
 10
22.0041766446
 20
-6.999559041
  0
LWPOLYLINE
  5
173
330
1F
100
AcDbEntity
  8
0
  6
Continuous
 62
     7
370
    25
100
AcDbPolyline
 90
       20
 70
   128
 43
0.0
 10
24.0671041921
 20
-5.0
 10
24.0625954989
 20
-4.8326443133
 10
24.0491010444
 20
-4.6664625066
 10
24.0267154826
 20
-4.5026202257
 10
23.9955958321
 20
-4.3422667065
 10
23.9559603749
 20
-4.1865267138
 10
23.9080871252
 20
-4.0364926518
 10
23.8523118795
 20
-3.8932169015
 10
23.7890258611
 20
-3.7577044394
 10
23.7186729759
 20
-3.6309057881
 10
23.6417466988
 20
-3.513710349
 10
23.5587866125
 20
-3.406940164
 10
23.4703746223
 20
-3.311344149
 10
23.3771308748
 20
-3.2275928415
 10
23.2797094078
 20
-3.1562736968
 10
23.1787935631
 20
-3.0978869674
 10
23.0750911927
 20
-3.0528421943
 10
22.9693296943
 20
-3.0214553341
 10
22.8622509087
 20
-3.0039465431
 10
22.7815289728
 20
-3.0
  0
LWPOLYLINE
  5
174
330
1F
100
AcDbEntity
  8
0
  6
Continuous
 62
     7
370
    25
100
AcDbPolyline
 90
       20
 70
   128
 43
0.0
 10
22.8123830533
 20
-6.9994239068
 10
22.8622509087
 20
-6.9960534569
 10
22.9693296943
 20
-6.9785446659
 10
23.0750911927
 20
-6.9471578057
 10
23.1787935631
 20
-6.9021130326
 10
23.2797094078
 20
-6.8437263032
 10
23.3771308748
 20
-6.7724071585
 10
23.4703746223
 20
-6.688655851
 10
23.5587866125
 20
-6.593059836
 10
23.6417466988
 20
-6.486289651
 10
23.7186729759
 20
-6.3690942119
 10
23.7890258611
 20
-6.2422955606
 10
23.8523118795
 20
-6.1067830985
 10
23.9080871252
 20
-5.9635073482
 10
23.9559603749
 20
-5.8134732862
 10
23.9955958321
 20
-5.6577332935
 10
24.0267154826
 20
-5.4973797743
 10
24.0491010444
 20
-5.3335374934
 10
24.0625954989
 20
-5.1673556867
 10
24.0671041921
 20
-5.0
  0
LWPOLYLINE
  5
175
330
1F
100
AcDbEntity
  8
0
  6
Continuous
 62
     7
370
    25
100
AcDbPolyline
 90
       22
 70
   128
 43
0.0
 10
23.9262209869
 20
-5.0
 10
23.921699961
 20
-5.1633331176
 10
23.9081703556
 20
-5.3254569739
 10
23.885732339
 20
-5.4851712607
 10
23.8545520346
 20
-5.6412935092
 10
23.8148602903
 20
-5.792667845
 10
23.7669509699
 20
-5.9381735453
 10
23.7111787774
 20
-6.076733337
 10
23.6479566304
 20
-6.2073213717
 10
23.5777526038
 20
-6.3289708214
 10
23.5010864634
 20
-6.4407810361
 10
23.4185258186
 20
-6.5419242121
 10
23.3306819195
 20
-6.6316515207
 10
23.2382051316
 20
-6.7092986523
 10
23.1417801207
 20
-6.7742907348
 10
23.0421207839
 20
-6.8261465894
 10
22.9399649639
 20
-6.8644822935
 10
22.8360689868
 20
-6.8890140231
 10
22.7312020621
 20
-6.8995601538
 10
22.6261405876
 20
-6.8960426056
 10
22.5216624019
 20
-6.8784874214
 10
22.4679933012
 20
-6.8639029931
  0
LWPOLYLINE
  5
176
330
1F
100
AcDbEntity
  8
0
  6
Continuous
 62
     7
370
    25
100
AcDbPolyline
 90
       12
 70
   128
 43
0.0
 10
23.4619502592
 20
-3.5090376889
 10
23.5010864634
 20
-3.5592189639
 10
23.5777526038
 20
-3.6710291786
 10
23.6479566304
 20
-3.7926786283
 10
23.7111787774
 20
-3.923266663
 10
23.7669509699
 20
-4.0618264547
 10
23.8148602903
 20
-4.207332155
 10
23.8545520346
 20
-4.3587064908
 10
23.885732339
 20
-4.5148287393
 10
23.9081703556
 20
-4.6745430261
 10
23.921699961
 20
-4.8366668824
 10
23.9262209869
 20
-5.0
  0
SPLINE
  5
177
330
1F
100
AcDbEntity
  8
0
  6
Continuous
 62
     7
370
    25
100
AcDbSpline
210
0.0
220
0.0
230
1.0
 70
     8
 71
     3
 72
    17
 73
    13
 74
     0
 42
0.00000001
 43
0.00000001
 40
0.0
 40
0.0
 40
0.0
 40
0.0
 40
0.0227750232053159
 40
0.1313555761825042
 40
0.2399361291596903
 40
0.3485166821368774
 40
0.4570972351140646
 40
0.5656777880912524
 40
0.6742583410684386
 40
0.7828388940456263
 40
0.8914194470228134
 40
1.0
 40
1.0
 40
1.0
 40
1.0
 10
23.64227031504967
 20
-3.134602319401621
 30
0.0
 10
23.65344603505702
 20
-3.1403097751419
 30
0.0
 10
23.71790230926522
 20
-3.173227683964296
 30
0.0
 10
23.82793266124179
 20
-3.264723927210821
 30
0.0
 10
23.96865539421006
 20
-3.408292484795716
 30
0.0
 10
24.09531124024139
 20
-3.581866050111497
 30
0.0
 10
24.2065472093498
 20
-3.778961940519732
 30
0.0
 10
24.30020612173192
 20
-3.997149039704933
 30
0.0
 10
24.37488692690039
 20
-4.232441900660541
 30
0.0
 10
24.42875979922234
 20
-4.480882169271831
 30
0.0
 10
24.46290954484925
 20
-4.738200881021888
 30
0.0
 10
24.46715486480523
 20
-4.912733627007298
 30
0.0
 10
24.46927752478322
 20
-5.0
 30
0.0
  0
SPLINE
  5
178
330
1F
100
AcDbEntity
  8
0
  6
Continuous
 62
     7
370
    25
100
AcDbSpline
210
0.0
220
0.0
230
1.0
 70
     8
 71
     3
 72
    38
 73
    34
 74
     0
 42
0.00000001
 43
0.00000001
 40
0.0
 40
0.0
 40
0.0
 40
0.0
 40
0.0625000000000001
 40
0.0625000000000001
 40
0.1250000000000002
 40
0.1250000000000002
 40
0.1875000000000003
 40
0.1875000000000003
 40
0.2500000000000004
 40
0.2500000000000004
 40
0.3125000000000006
 40
0.3125000000000006
 40
0.3750000000000007
 40
0.3750000000000007
 40
0.4375000000000008
 40
0.4375000000000008
 40
0.5000000000000009
 40
0.5000000000000009
 40
0.5625000000000008
 40
0.5625000000000008
 40
0.6250000000000007
 40
0.6250000000000007
 40
0.6875000000000006
 40
0.6875000000000006
 40
0.7500000000000004
 40
0.7500000000000004
 40
0.8125000000000003
 40
0.8125000000000003
 40
0.8750000000000002
 40
0.8750000000000002
 40
0.9375000000000001
 40
0.9375000000000001
 40
1.0
 40
1.0
 40
1.0
 40
1.0
 10
-21.57500897486032
 20
-7.000000000000003
 30
0.0
 10
-21.65914967621096
 20
-6.999999999999998
 30
0.0
 10
-21.74328829701695
 20
-6.987107824241067
 30
0.0
 10
-21.90833621975194
 20
-6.936033297371424
 30
0.0
 10
-21.98924144054582
 20
-6.897852209179039
 30
0.0
 10
-22.14471318420373
 20
-6.797665920864445
 30
0.0
 10
-22.21927586272254
 20
-6.735663198045651
 30
0.0
 10
-22.35919673538415
 20
-6.590215251160943
 30
0.0
 10
-22.42455146970763
 20
-6.506773623582136
 30
0.0
 10
-22.54354439070502
 20
-6.321653501157972
 30
0.0
 10
-22.59717963504447
 20
-6.219979583772439
 30
0.0
 10
-22.6906717731557
 20
-6.00230134829706
 30
0.0
 10
-22.73052635515013
 20
-5.886302412730544
 30
0.0
 10
-22.79492485993858
 20
-5.644431316717949
 30
0.0
 10
-22.81946719035263
 20
-5.518565137011348
 30
0.0
 10
-22.85229726339433
 20
-5.261796151038478
 30
0.0
 10
-22.86058419423372
 20
-5.130899693891379
 30
0.0
 10
-22.860584194233
 20
-4.869100306091522
 30
0.0
 10
-22.8522972633929
 20
-4.738203848944533
 30
0.0
 10
-22.81946719034977
 20
-4.4814348629721
 30
0.0
 10
-22.79492485993503
 20
-4.355568683265827
 30
0.0
 10
-22.73052635514526
 20
-4.113697587254088
 30
0.0
 10
-22.69067177315019
 20
-3.997698651688101
 30
0.0
 10
-22.59717963503777
 20
-3.780020416213964
 30
0.0
 10
-22.54354439069776
 20
-3.678346498829143
 30
0.0
 10
-22.42455146969934
 20
-3.493226376406561
 30
0.0
 10
-22.3591967353754
 20
-3.409784748828628
 30
0.0
 10
-22.219275862713
 20
-3.264336801945783
 30
0.0
 10
-22.14471318419385
 20
-3.202334079127972
 30
0.0
 10
-21.98924144053538
 20
-3.10214779081545
 30
0.0
 10
-21.90833621974129
 20
-3.06396670262414
 30
0.0
 10
-21.74328829700602
 20
-3.012892175756695
 30
0.0
 10
-21.65914967619995
 20
-2.999999999998883
 30
0.0
 10
-21.57500897484933
 20
-2.999999999999997
 30
0.0
  0
LWPOLYLINE
  5
179
330
1F
100
AcDbEntity
  8
0
  6
Continuous
 62
     7
370
    25
100
AcDbPolyline
 90
       40
 70
   128
 43
0.0
 10
-21.9910768034
 20
-3.0001168163
 10
-22.0041053635
 20
-3.0004386331
 10
-22.1115615096
 20
-3.0109562093
 10
-22.2180750821
 20
-3.0354254985
 10
-22.3228989649
 20
-3.0736748664
 10
-22.4252978937
 20
-3.125436021
 10
-22.5245536137
 20
-3.1903458951
 10
-22.6199699172
 20
-3.2679491924
 10
-22.7108775275
 20
-3.3577015817
 10
-22.796638793
 20
-3.4589735144
 10
-22.87665216
 20
-3.5710546407
 10
-22.9503563922
 20
-3.693158792
 10
-23.0172345075
 20
-3.8244294954
 10
-23.0768174039
 20
-3.9639459813
 10
-23.1286871502
 20
-4.1107296416
 10
-23.1724799173
 20
-4.2637508946
 10
-23.2078885305
 20
-4.4219364061
 10
-23.2346646239
 20
-4.5841766184
 10
-23.2526203823
 20
-4.7493335329
 10
-23.261629859
 20
-4.9162486925
 10
-23.261629859
 20
-5.0837513075
 10
-23.2526203823
 20
-5.2506664671
 10
-23.2346646239
 20
-5.4158233816
 10
-23.2078885305
 20
-5.5780635939
 10
-23.1724799173
 20
-5.7362491054
 10
-23.1286871502
 20
-5.8892703584
 10
-23.0768174039
 20
-6.0360540187
 10
-23.0172345075
 20
-6.1755705046
 10
-22.9503563922
 20
-6.306841208
 10
-22.87665216
 20
-6.4289453593
 10
-22.796638793
 20
-6.5410264856
 10
-22.7108775275
 20
-6.6422984183
 10
-22.6199699172
 20
-6.7320508076
 10
-22.5245536137
 20
-6.8096541049
 10
-22.4252978937
 20
-6.874563979
 10
-22.3228989649
 20
-6.9263251336
 10
-22.2180750821
 20
-6.9645745015
 10
-22.1115615096
 20
-6.9890437907
 10
-22.0041053635
 20
-6.9995613669
 10
-21.9771823075
 20
-7.0
  0
LWPOLYLINE
  5
17A
330
1F
100
AcDbEntity
  8
0
  6
Continuous
 62
     7
370
    25
100
AcDbPolyline
 90
       20
 70
   128
 43
0.0
 10
-24.0671041921
 20
-5.0
 10
-24.0625954989
 20
-4.8326443133
 10
-24.0491010444
 20
-4.6664625066
 10
-24.0267154826
 20
-4.5026202257
 10
-23.9955958321
 20
-4.3422667065
 10
-23.9559603749
 20
-4.1865267138
 10
-23.9080871252
 20
-4.0364926518
 10
-23.8523118795
 20
-3.8932169015
 10
-23.7890258611
 20
-3.7577044394
 10
-23.7186729759
 20
-3.6309057881
 10
-23.6417466988
 20
-3.513710349
 10
-23.5587866125
 20
-3.406940164
 10
-23.4703746223
 20
-3.311344149
 10
-23.3771308748
 20
-3.2275928415
 10
-23.2797094078
 20
-3.1562736968
 10
-23.1787935631
 20
-3.0978869674
 10
-23.0750911927
 20
-3.0528421943
 10
-22.9693296943
 20
-3.0214553341
 10
-22.8622509087
 20
-3.0039465431
 10
-22.7815289728
 20
-3.0
  0
LWPOLYLINE
  5
17B
330
1F
100
AcDbEntity
  8
0
  6
Continuous
 62
     7
370
    25
100
AcDbPolyline
 90
       20
 70
   128
 43
0.0
 10
-22.7815289728
 20
-7.0
 10
-22.8622509087
 20
-6.9960534569
 10
-22.9693296943
 20
-6.9785446659
 10
-23.0750911927
 20
-6.9471578057
 10
-23.1787935631
 20
-6.9021130326
 10
-23.2797094078
 20
-6.8437263032
 10
-23.3771308748
 20
-6.7724071585
 10
-23.4703746223
 20
-6.688655851
 10
-23.5587866125
 20
-6.593059836
 10
-23.6417466988
 20
-6.486289651
 10
-23.7186729759
 20
-6.3690942119
 10
-23.7890258611
 20
-6.2422955606
 10
-23.8523118795
 20
-6.1067830985
 10
-23.9080871252
 20
-5.9635073482
 10
-23.9559603749
 20
-5.8134732862
 10
-23.9955958321
 20
-5.6577332935
 10
-24.0267154826
 20
-5.4973797743
 10
-24.0491010444
 20
-5.3335374934
 10
-24.0625954989
 20
-5.1673556867
 10
-24.0671041921
 20
-5.0
  0
LWPOLYLINE
  5
17C
330
1F
100
AcDbEntity
  8
0
  6
Continuous
 62
     7
370
    25
100
AcDbPolyline
 90
       22
 70
   128
 43
0.0
 10
-23.9262209869
 20
-5.0
 10
-23.921699961
 20
-5.1633331176
 10
-23.9081703556
 20
-5.3254569739
 10
-23.885732339
 20
-5.4851712607
 10
-23.8545520346
 20
-5.6412935092
 10
-23.8148602903
 20
-5.792667845
 10
-23.7669509699
 20
-5.9381735453
 10
-23.7111787774
 20
-6.076733337
 10
-23.6479566304
 20
-6.2073213717
 10
-23.5777526038
 20
-6.3289708214
 10
-23.5010864634
 20
-6.4407810361
 10
-23.4185258186
 20
-6.5419242121
 10
-23.3306819195
 20
-6.6316515207
 10
-23.2382051316
 20
-6.7092986523
 10
-23.1417801207
 20
-6.7742907348
 10
-23.0421207839
 20
-6.8261465894
 10
-22.9399649639
 20
-6.8644822935
 10
-22.8360689868
 20
-6.8890140231
 10
-22.7312020621
 20
-6.8995601538
 10
-22.6261405876
 20
-6.8960426056
 10
-22.5216624019
 20
-6.8784874214
 10
-22.4675407764
 20
-6.8637636334
  0
LWPOLYLINE
  5
17D
330
1F
100
AcDbEntity
  8
0
  6
Continuous
 62
     7
370
    25
100
AcDbPolyline
 90
       12
 70
   128
 43
0.0
 10
-23.4619502592
 20
-3.5090376889
 10
-23.5010864634
 20
-3.5592189639
 10
-23.5777526038
 20
-3.6710291786
 10
-23.6479566304
 20
-3.7926786283
 10
-23.7111787774
 20
-3.923266663
 10
-23.7669509699
 20
-4.0618264547
 10
-23.8148602903
 20
-4.207332155
 10
-23.8545520346
 20
-4.3587064908
 10
-23.885732339
 20
-4.5148287393
 10
-23.9081703556
 20
-4.6745430261
 10
-23.921699961
 20
-4.8366668824
 10
-23.9262209869
 20
-5.0
  0
SPLINE
  5
17E
330
1F
100
AcDbEntity
  8
0
  6
Continuous
 62
     7
370
    25
100
AcDbSpline
210
0.0
220
0.0
230
1.0
 70
     8
 71
     3
 72
    17
 73
    13
 74
     0
 42
0.00000001
 43
0.00000001
 40
0.0
 40
0.0
 40
0.0
 40
0.0
 40
0.1085805529771556
 40
0.2171611059543119
 40
0.3257416589314673
 40
0.4343222119086235
 40
0.5429027648857794
 40
0.6514833178629357
 40
0.7600638708400904
 40
0.8686444238172465
 40
0.9772249767944036
 40
0.9999999999999999
 40
0.9999999999999999
 40
0.9999999999999999
 40
0.9999999999999999
 10
-24.46927752478322
 20
-5.0
 30
0.0
 10
-24.46715486480523
 20
-5.087266372992707
 30
0.0
 10
-24.46290954484925
 20
-5.261799118978116
 30
0.0
 10
-24.42875979922234
 20
-5.519117830728169
 30
0.0
 10
-24.37488692690038
 20
-5.76755809933946
 30
0.0
 10
-24.30020612173193
 20
-6.002850960295068
 30
0.0
 10
-24.2065472093498
 20
-6.221038059480273
 30
0.0
 10
-24.09531124024138
 20
-6.418133949888503
 30
0.0
 10
-23.96865539421007
 20
-6.591707515204289
 30
0.0
 10
-23.82793266124179
 20
-6.73527607278918
 30
0.0
 10
-23.71790230926509
 20
-6.826772316035791
 30
0.0
 10
-23.65344603505675
 20
-6.859690224858253
 30
0.0
 10
-23.64227031504925
 20
-6.865397680598603
 30
0.0
  0
LINE
  5
17F
330
1F
100
AcDbEntity
  8
0
  6
Continuous
 62
     7
370
    25
100
AcDbLine
 10
21.5750089749
 20
-7.0
 30
0.0
 11
21.9771823075
 21
-7.0
 31
0.0
  0
LINE
  5
180
330
1F
100
AcDbEntity
  8
0
  6
Continuous
 62
     7
370
    25
100
AcDbLine
 10
22.6666223063
 20
-3.0625
 30
0.0
 11
22.30389629
 21
-3.0625
 31
0.0
  0
LINE
  5
181
330
1F
100
AcDbEntity
  8
0
  6
Continuous
 62
     7
370
    25
100
AcDbLine
 10
22.7815289728
 20
-7.0
 30
0.0
 11
23.1837023054
 21
-7.0
 31
0.0
  0
LINE
  5
182
330
1F
100
AcDbEntity
  8
0
  6
Continuous
 62
     7
370
    25
100
AcDbLine
 10
21.4639325306
 20
-5.4375
 30
0.0
 11
21.4792534195
 21
-5.4375
 31
0.0
  0
LINE
  5
183
330
1F
100
AcDbEntity
  8
0
  6
Continuous
 62
     7
370
    25
100
AcDbLine
 10
21.4792534195
 20
-4.5625
 30
0.0
 11
21.4639325306
 21
-4.5625
 31
0.0
  0
LINE
  5
184
330
1F
100
AcDbEntity
  8
0
  6
Continuous
 62
     7
370
    25
100
AcDbLine
 10
21.0
 20
-3.0
 30
0.0
 11
21.0
 21
-3.2076852624
 31
0.0
  0
LINE
  5
185
330
1F
100
AcDbEntity
  8
0
  6
Continuous
 62
     7
370
    25
100
AcDbLine
 10
-21.9771823075
 20
-7.0
 30
0.0
 11
-21.5750089749
 21
-7.0
 31
0.0
  0
LINE
  5
186
330
1F
100
AcDbEntity
  8
0
  6
Continuous
 62
     7
370
    25
100
AcDbLine
 10
-22.3030013103
 20
-3.0625
 30
0.0
 11
-22.6666223063
 21
-3.0625
 31
0.0
  0
LINE
  5
187
330
1F
100
AcDbEntity
  8
0
  6
Continuous
 62
     7
370
    25
100
AcDbLine
 10
-23.1837023054
 20
-7.0
 30
0.0
 11
-22.7815289728
 21
-7.0
 31
0.0
  0
LINE
  5
188
330
1F
100
AcDbEntity
  8
0
  6
Continuous
 62
     7
370
    25
100
AcDbLine
 10
-21.4639325306
 20
-4.5625
 30
0.0
 11
-21.4792534195
 21
-4.5625
 31
0.0
  0
LINE
  5
189
330
1F
100
AcDbEntity
  8
0
  6
Continuous
 62
     7
370
    25
100
AcDbLine
 10
-21.4792534195
 20
-5.4375
 30
0.0
 11
-21.4639325306
 21
-5.4375
 31
0.0
  0
LINE
  5
18A
330
1F
100
AcDbEntity
  8
0
  6
Continuous
 62
     7
370
    25
100
AcDbLine
 10
-21.0
 20
-3.2071832558
 30
0.0
 11
-21.0
 21
-3.0
 31
0.0
  0
LINE
  5
18B
330
1F
100
AcDbEntity
  8
0
  6
Continuous
 62
     7
370
    25
100
AcDbLine
 10
23.875
 20
57.4375
 30
0.0
 11
23.6875
 21
57.4375
 31
0.0
  0
LINE
  5
18C
330
1F
100
AcDbEntity
  8
0
  6
Continuous
 62
     7
370
    25
100
AcDbLine
 10
23.6875
 20
57.0625
 30
0.0
 11
23.875
 21
57.0625
 31
0.0
  0
LINE
  5
18D
330
1F
100
AcDbEntity
  8
0
  6
Continuous
 62
     7
370
    25
100
AcDbLine
 10
23.875
 20
51.4375
 30
0.0
 11
23.6875
 21
51.4375
 31
0.0
  0
LINE
  5
18E
330
1F
100
AcDbEntity
  8
0
  6
Continuous
 62
     7
370
    25
100
AcDbLine
 10
23.6875
 20
51.0625
 30
0.0
 11
23.875
 21
51.0625
 31
0.0
  0
LINE
  5
18F
330
1F
100
AcDbEntity
  8
0
  6
Continuous
 62
     7
370
    25
100
AcDbLine
 10
23.875
 20
45.4375
 30
0.0
 11
23.6875
 21
45.4375
 31
0.0
  0
LINE
  5
190
330
1F
100
AcDbEntity
  8
0
  6
Continuous
 62
     7
370
    25
100
AcDbLine
 10
23.6875
 20
45.0625
 30
0.0
 11
23.875
 21
45.0625
 31
0.0
  0
LINE
  5
191
330
1F
100
AcDbEntity
  8
0
  6
Continuous
 62
     7
370
    25
100
AcDbLine
 10
23.875
 20
39.4375
 30
0.0
 11
23.6875
 21
39.4375
 31
0.0
  0
LINE
  5
192
330
1F
100
AcDbEntity
  8
0
  6
Continuous
 62
     7
370
    25
100
AcDbLine
 10
23.6875
 20
39.0625
 30
0.0
 11
23.875
 21
39.0625
 31
0.0
  0
LINE
  5
193
330
1F
100
AcDbEntity
  8
0
  6
Continuous
 62
     7
370
    25
100
AcDbLine
 10
23.875
 20
33.4375
 30
0.0
 11
23.6875
 21
33.4375
 31
0.0
  0
LINE
  5
194
330
1F
100
AcDbEntity
  8
0
  6
Continuous
 62
     7
370
    25
100
AcDbLine
 10
23.6875
 20
33.0625
 30
0.0
 11
23.875
 21
33.0625
 31
0.0
  0
LINE
  5
195
330
1F
100
AcDbEntity
  8
0
  6
Continuous
 62
     7
370
    25
100
AcDbLine
 10
23.875
 20
27.4375
 30
0.0
 11
23.6875
 21
27.4375
 31
0.0
  0
LINE
  5
196
330
1F
100
AcDbEntity
  8
0
  6
Continuous
 62
     7
370
    25
100
AcDbLine
 10
23.6875
 20
27.0625
 30
0.0
 11
23.875
 21
27.0625
 31
0.0
  0
LINE
  5
197
330
1F
100
AcDbEntity
  8
0
  6
Continuous
 62
     7
370
    25
100
AcDbLine
 10
23.875
 20
21.4375
 30
0.0
 11
23.6875
 21
21.4375
 31
0.0
  0
LINE
  5
198
330
1F
100
AcDbEntity
  8
0
  6
Continuous
 62
     7
370
    25
100
AcDbLine
 10
23.6875
 20
21.0625
 30
0.0
 11
23.875
 21
21.0625
 31
0.0
  0
LINE
  5
199
330
1F
100
AcDbEntity
  8
0
  6
Continuous
 62
     7
370
    25
100
AcDbLine
 10
23.875
 20
15.4375
 30
0.0
 11
23.6875
 21
15.4375
 31
0.0
  0
LINE
  5
19A
330
1F
100
AcDbEntity
  8
0
  6
Continuous
 62
     7
370
    25
100
AcDbLine
 10
23.6875
 20
15.0625
 30
0.0
 11
23.875
 21
15.0625
 31
0.0
  0
LINE
  5
19B
330
1F
100
AcDbEntity
  8
0
  6
Continuous
 62
     7
370
    25
100
AcDbLine
 10
23.875
 20
9.4375
 30
0.0
 11
23.6875
 21
9.4375
 31
0.0
  0
LINE
  5
19C
330
1F
100
AcDbEntity
  8
0
  6
Continuous
 62
     7
370
    25
100
AcDbLine
 10
23.6875
 20
9.0625
 30
0.0
 11
23.875
 21
9.0625
 31
0.0
  0
LINE
  5
19D
330
1F
100
AcDbEntity
  8
0
  6
Continuous
 62
     7
370
    25
100
AcDbLine
 10
-23.875
 20
57.0625
 30
0.0
 11
-23.6875
 21
57.0625
 31
0.0
  0
LINE
  5
19E
330
1F
100
AcDbEntity
  8
0
  6
Continuous
 62
     7
370
    25
100
AcDbLine
 10
-23.6875
 20
57.4375
 30
0.0
 11
-23.875
 21
57.4375
 31
0.0
  0
LINE
  5
19F
330
1F
100
AcDbEntity
  8
0
  6
Continuous
 62
     7
370
    25
100
AcDbLine
 10
-23.875
 20
51.0625
 30
0.0
 11
-23.6875
 21
51.0625
 31
0.0
  0
LINE
  5
1A0
330
1F
100
AcDbEntity
  8
0
  6
Continuous
 62
     7
370
    25
100
AcDbLine
 10
-23.6875
 20
51.4375
 30
0.0
 11
-23.875
 21
51.4375
 31
0.0
  0
LINE
  5
1A1
330
1F
100
AcDbEntity
  8
0
  6
Continuous
 62
     7
370
    25
100
AcDbLine
 10
-23.875
 20
45.0625
 30
0.0
 11
-23.6875
 21
45.0625
 31
0.0
  0
LINE
  5
1A2
330
1F
100
AcDbEntity
  8
0
  6
Continuous
 62
     7
370
    25
100
AcDbLine
 10
-23.6875
 20
45.4375
 30
0.0
 11
-23.875
 21
45.4375
 31
0.0
  0
LINE
  5
1A3
330
1F
100
AcDbEntity
  8
0
  6
Continuous
 62
     7
370
    25
100
AcDbLine
 10
-23.875
 20
39.0625
 30
0.0
 11
-23.6875
 21
39.0625
 31
0.0
  0
LINE
  5
1A4
330
1F
100
AcDbEntity
  8
0
  6
Continuous
 62
     7
370
    25
100
AcDbLine
 10
-23.6875
 20
39.4375
 30
0.0
 11
-23.875
 21
39.4375
 31
0.0
  0
LINE
  5
1A5
330
1F
100
AcDbEntity
  8
0
  6
Continuous
 62
     7
370
    25
100
AcDbLine
 10
-23.875
 20
33.0625
 30
0.0
 11
-23.6875
 21
33.0625
 31
0.0
  0
LINE
  5
1A6
330
1F
100
AcDbEntity
  8
0
  6
Continuous
 62
     7
370
    25
100
AcDbLine
 10
-23.6875
 20
33.4375
 30
0.0
 11
-23.875
 21
33.4375
 31
0.0
  0
LINE
  5
1A7
330
1F
100
AcDbEntity
  8
0
  6
Continuous
 62
     7
370
    25
100
AcDbLine
 10
-23.875
 20
27.0625
 30
0.0
 11
-23.6875
 21
27.0625
 31
0.0
  0
LINE
  5
1A8
330
1F
100
AcDbEntity
  8
0
  6
Continuous
 62
     7
370
    25
100
AcDbLine
 10
-23.6875
 20
27.4375
 30
0.0
 11
-23.875
 21
27.4375
 31
0.0
  0
LINE
  5
1A9
330
1F
100
AcDbEntity
  8
0
  6
Continuous
 62
     7
370
    25
100
AcDbLine
 10
-23.875
 20
21.0625
 30
0.0
 11
-23.6875
 21
21.0625
 31
0.0
  0
LINE
  5
1AA
330
1F
100
AcDbEntity
  8
0
  6
Continuous
 62
     7
370
    25
100
AcDbLine
 10
-23.6875
 20
21.4375
 30
0.0
 11
-23.875
 21
21.4375
 31
0.0
  0
LINE
  5
1AB
330
1F
100
AcDbEntity
  8
0
  6
Continuous
 62
     7
370
    25
100
AcDbLine
 10
-23.875
 20
15.0625
 30
0.0
 11
-23.6875
 21
15.0625
 31
0.0
  0
LINE
  5
1AC
330
1F
100
AcDbEntity
  8
0
  6
Continuous
 62
     7
370
    25
100
AcDbLine
 10
-23.6875
 20
15.4375
 30
0.0
 11
-23.875
 21
15.4375
 31
0.0
  0
LINE
  5
1AD
330
1F
100
AcDbEntity
  8
0
  6
Continuous
 62
     7
370
    25
100
AcDbLine
 10
-23.875
 20
9.0625
 30
0.0
 11
-23.6875
 21
9.0625
 31
0.0
  0
LINE
  5
1AE
330
1F
100
AcDbEntity
  8
0
  6
Continuous
 62
     7
370
    25
100
AcDbLine
 10
-23.6875
 20
9.4375
 30
0.0
 11
-23.875
 21
9.4375
 31
0.0
  0
LINE
  5
1AF
330
1F
100
AcDbEntity
  8
0
  6
Continuous
 62
     7
370
    25
100
AcDbLine
 10
-0.3125
 20
57.0625
 30
0.0
 11
-0.125
 21
57.0625
 31
0.0
  0
LINE
  5
1B0
330
1F
100
AcDbEntity
  8
0
  6
Continuous
 62
     7
370
    25
100
AcDbLine
 10
0.125
 20
57.0625
 30
0.0
 11
0.3125
 21
57.0625
 31
0.0
  0
LINE
  5
1B1
330
1F
100
AcDbEntity
  8
0
  6
Continuous
 62
     7
370
    25
100
AcDbLine
 10
0.3125
 20
57.4375
 30
0.0
 11
0.125
 21
57.4375
 31
0.0
  0
LINE
  5
1B2
330
1F
100
AcDbEntity
  8
0
  6
Continuous
 62
     7
370
    25
100
AcDbLine
 10
-0.125
 20
57.4375
 30
0.0
 11
-0.3125
 21
57.4375
 31
0.0
  0
LINE
  5
1B3
330
1F
100
AcDbEntity
  8
0
  6
Continuous
 62
     7
370
    25
100
AcDbLine
 10
-0.3125
 20
51.0625
 30
0.0
 11
-0.125
 21
51.0625
 31
0.0
  0
LINE
  5
1B4
330
1F
100
AcDbEntity
  8
0
  6
Continuous
 62
     7
370
    25
100
AcDbLine
 10
0.125
 20
51.0625
 30
0.0
 11
0.3125
 21
51.0625
 31
0.0
  0
LINE
  5
1B5
330
1F
100
AcDbEntity
  8
0
  6
Continuous
 62
     7
370
    25
100
AcDbLine
 10
0.3125
 20
51.4375
 30
0.0
 11
0.125
 21
51.4375
 31
0.0
  0
LINE
  5
1B6
330
1F
100
AcDbEntity
  8
0
  6
Continuous
 62
     7
370
    25
100
AcDbLine
 10
-0.125
 20
51.4375
 30
0.0
 11
-0.3125
 21
51.4375
 31
0.0
  0
LINE
  5
1B7
330
1F
100
AcDbEntity
  8
0
  6
Continuous
 62
     7
370
    25
100
AcDbLine
 10
-0.3125
 20
45.0625
 30
0.0
 11
-0.125
 21
45.0625
 31
0.0
  0
LINE
  5
1B8
330
1F
100
AcDbEntity
  8
0
  6
Continuous
 62
     7
370
    25
100
AcDbLine
 10
0.125
 20
45.0625
 30
0.0
 11
0.3125
 21
45.0625
 31
0.0
  0
LINE
  5
1B9
330
1F
100
AcDbEntity
  8
0
  6
Continuous
 62
     7
370
    25
100
AcDbLine
 10
0.3125
 20
45.4375
 30
0.0
 11
0.125
 21
45.4375
 31
0.0
  0
LINE
  5
1BA
330
1F
100
AcDbEntity
  8
0
  6
Continuous
 62
     7
370
    25
100
AcDbLine
 10
-0.125
 20
45.4375
 30
0.0
 11
-0.3125
 21
45.4375
 31
0.0
  0
LINE
  5
1BB
330
1F
100
AcDbEntity
  8
0
  6
Continuous
 62
     7
370
    25
100
AcDbLine
 10
-0.3125
 20
39.0625
 30
0.0
 11
-0.125
 21
39.0625
 31
0.0
  0
LINE
  5
1BC
330
1F
100
AcDbEntity
  8
0
  6
Continuous
 62
     7
370
    25
100
AcDbLine
 10
0.125
 20
39.0625
 30
0.0
 11
0.3125
 21
39.0625
 31
0.0
  0
LINE
  5
1BD
330
1F
100
AcDbEntity
  8
0
  6
Continuous
 62
     7
370
    25
100
AcDbLine
 10
0.3125
 20
39.4375
 30
0.0
 11
0.125
 21
39.4375
 31
0.0
  0
LINE
  5
1BE
330
1F
100
AcDbEntity
  8
0
  6
Continuous
 62
     7
370
    25
100
AcDbLine
 10
-0.125
 20
39.4375
 30
0.0
 11
-0.3125
 21
39.4375
 31
0.0
  0
LINE
  5
1BF
330
1F
100
AcDbEntity
  8
0
  6
Continuous
 62
     7
370
    25
100
AcDbLine
 10
-0.3125
 20
33.0625
 30
0.0
 11
-0.125
 21
33.0625
 31
0.0
  0
LINE
  5
1C0
330
1F
100
AcDbEntity
  8
0
  6
Continuous
 62
     7
370
    25
100
AcDbLine
 10
0.125
 20
33.0625
 30
0.0
 11
0.3125
 21
33.0625
 31
0.0
  0
LINE
  5
1C1
330
1F
100
AcDbEntity
  8
0
  6
Continuous
 62
     7
370
    25
100
AcDbLine
 10
0.3125
 20
33.4375
 30
0.0
 11
0.125
 21
33.4375
 31
0.0
  0
LINE
  5
1C2
330
1F
100
AcDbEntity
  8
0
  6
Continuous
 62
     7
370
    25
100
AcDbLine
 10
-0.125
 20
33.4375
 30
0.0
 11
-0.3125
 21
33.4375
 31
0.0
  0
LINE
  5
1C3
330
1F
100
AcDbEntity
  8
0
  6
Continuous
 62
     7
370
    25
100
AcDbLine
 10
-0.3125
 20
27.0625
 30
0.0
 11
-0.125
 21
27.0625
 31
0.0
  0
LINE
  5
1C4
330
1F
100
AcDbEntity
  8
0
  6
Continuous
 62
     7
370
    25
100
AcDbLine
 10
0.125
 20
27.0625
 30
0.0
 11
0.3125
 21
27.0625
 31
0.0
  0
LINE
  5
1C5
330
1F
100
AcDbEntity
  8
0
  6
Continuous
 62
     7
370
    25
100
AcDbLine
 10
0.3125
 20
27.4375
 30
0.0
 11
0.125
 21
27.4375
 31
0.0
  0
LINE
  5
1C6
330
1F
100
AcDbEntity
  8
0
  6
Continuous
 62
     7
370
    25
100
AcDbLine
 10
-0.125
 20
27.4375
 30
0.0
 11
-0.3125
 21
27.4375
 31
0.0
  0
LINE
  5
1C7
330
1F
100
AcDbEntity
  8
0
  6
Continuous
 62
     7
370
    25
100
AcDbLine
 10
-0.3125
 20
21.0625
 30
0.0
 11
-0.125
 21
21.0625
 31
0.0
  0
LINE
  5
1C8
330
1F
100
AcDbEntity
  8
0
  6
Continuous
 62
     7
370
    25
100
AcDbLine
 10
0.125
 20
21.0625
 30
0.0
 11
0.3125
 21
21.0625
 31
0.0
  0
LINE
  5
1C9
330
1F
100
AcDbEntity
  8
0
  6
Continuous
 62
     7
370
    25
100
AcDbLine
 10
0.3125
 20
21.4375
 30
0.0
 11
0.125
 21
21.4375
 31
0.0
  0
LINE
  5
1CA
330
1F
100
AcDbEntity
  8
0
  6
Continuous
 62
     7
370
    25
100
AcDbLine
 10
-0.125
 20
21.4375
 30
0.0
 11
-0.3125
 21
21.4375
 31
0.0
  0
LINE
  5
1CB
330
1F
100
AcDbEntity
  8
0
  6
Continuous
 62
     7
370
    25
100
AcDbLine
 10
-0.3125
 20
15.0625
 30
0.0
 11
-0.125
 21
15.0625
 31
0.0
  0
LINE
  5
1CC
330
1F
100
AcDbEntity
  8
0
  6
Continuous
 62
     7
370
    25
100
AcDbLine
 10
0.125
 20
15.0625
 30
0.0
 11
0.3125
 21
15.0625
 31
0.0
  0
LINE
  5
1CD
330
1F
100
AcDbEntity
  8
0
  6
Continuous
 62
     7
370
    25
100
AcDbLine
 10
0.3125
 20
15.4375
 30
0.0
 11
0.125
 21
15.4375
 31
0.0
  0
LINE
  5
1CE
330
1F
100
AcDbEntity
  8
0
  6
Continuous
 62
     7
370
    25
100
AcDbLine
 10
-0.125
 20
15.4375
 30
0.0
 11
-0.3125
 21
15.4375
 31
0.0
  0
LINE
  5
1CF
330
1F
100
AcDbEntity
  8
0
  6
Continuous
 62
     7
370
    25
100
AcDbLine
 10
-0.3125
 20
9.0625
 30
0.0
 11
-0.125
 21
9.0625
 31
0.0
  0
LINE
  5
1D0
330
1F
100
AcDbEntity
  8
0
  6
Continuous
 62
     7
370
    25
100
AcDbLine
 10
0.125
 20
9.0625
 30
0.0
 11
0.3125
 21
9.0625
 31
0.0
  0
LINE
  5
1D1
330
1F
100
AcDbEntity
  8
0
  6
Continuous
 62
     7
370
    25
100
AcDbLine
 10
0.3125
 20
9.4375
 30
0.0
 11
0.125
 21
9.4375
 31
0.0
  0
LINE
  5
1D2
330
1F
100
AcDbEntity
  8
0
  6
Continuous
 62
     7
370
    25
100
AcDbLine
 10
-0.125
 20
9.4375
 30
0.0
 11
-0.3125
 21
9.4375
 31
0.0
  0
LINE
  5
1D3
330
1F
100
AcDbEntity
  8
0
  6
Continuous
 62
     7
370
    25
100
AcDbLine
 10
-0.3125
 20
3.0625
 30
0.0
 11
-0.125
 21
3.0625
 31
0.0
  0
LINE
  5
1D4
330
1F
100
AcDbEntity
  8
0
  6
Continuous
 62
     7
370
    25
100
AcDbLine
 10
0.125
 20
3.0625
 30
0.0
 11
0.3125
 21
3.0625
 31
0.0
  0
LINE
  5
1D5
330
1F
100
AcDbEntity
  8
0
  6
Continuous
 62
     7
370
    25
100
AcDbLine
 10
0.3125
 20
3.4375
 30
0.0
 11
0.125
 21
3.4375
 31
0.0
  0
LINE
  5
1D6
330
1F
100
AcDbEntity
  8
0
  6
Continuous
 62
     7
370
    25
100
AcDbLine
 10
-0.125
 20
3.4375
 30
0.0
 11
-0.3125
 21
3.4375
 31
0.0
  0
LINE
  5
1D7
330
1F
100
AcDbEntity
  8
0
  6
Continuous
 62
     7
370
    25
100
AcDbLine
 10
23.875
 20
3.4375
 30
0.0
 11
23.6875
 21
3.4375
 31
0.0
  0
LINE
  5
1D8
330
1F
100
AcDbEntity
  8
0
  6
Continuous
 62
     7
370
    25
100
AcDbLine
 10
23.6875
 20
3.0625
 30
0.0
 11
23.875
 21
3.0625
 31
0.0
  0
LINE
  5
1D9
330
1F
100
AcDbEntity
  8
0
  6
Continuous
 62
     7
370
    25
100
AcDbLine
 10
-23.875
 20
3.0625
 30
0.0
 11
-23.6875
 21
3.0625
 31
0.0
  0
LINE
  5
1DA
330
1F
100
AcDbEntity
  8
0
  6
Continuous
 62
     7
370
    25
100
AcDbLine
 10
-23.6875
 20
3.4375
 30
0.0
 11
-23.875
 21
3.4375
 31
0.0
  0
LINE
  5
1DB
330
1F
100
AcDbEntity
  8
0
  6
Continuous
 62
     7
370
    25
100
AcDbLine
 10
23.6875
 20
60.0
 30
0.0
 11
0.3125
 21
60.0
 31
0.0
  0
LINE
  5
1DC
330
1F
100
AcDbEntity
  8
0
  6
Continuous
 62
     7
370
    25
100
AcDbLine
 10
23.6875
 20
48.5
 30
0.0
 11
0.3125
 21
48.5
 31
0.0
  0
LINE
  5
1DD
330
1F
100
AcDbEntity
  8
0
  6
Continuous
 62
     7
370
    25
100
AcDbLine
 10
23.6875
 20
48.25
 30
0.0
 11
0.3125
 21
48.25
 31
0.0
  0
LINE
  5
1DE
330
1F
100
AcDbEntity
  8
0
  6
Continuous
 62
     7
370
    25
100
AcDbLine
 10
23.6875
 20
48.0
 30
0.0
 11
0.3125
 21
48.0
 31
0.0
  0
LINE
  5
1DF
330
1F
100
AcDbEntity
  8
0
  6
Continuous
 62
     7
370
    25
100
AcDbLine
 10
23.6875
 20
36.5
 30
0.0
 11
0.3125
 21
36.5
 31
0.0
  0
LINE
  5
1E0
330
1F
100
AcDbEntity
  8
0
  6
Continuous
 62
     7
370
    25
100
AcDbLine
 10
23.6875
 20
36.25
 30
0.0
 11
0.3125
 21
36.25
 31
0.0
  0
LINE
  5
1E1
330
1F
100
AcDbEntity
  8
0
  6
Continuous
 62
     7
370
    25
100
AcDbLine
 10
23.6875
 20
36.0
 30
0.0
 11
0.3125
 21
36.0
 31
0.0
  0
LINE
  5
1E2
330
1F
100
AcDbEntity
  8
0
  6
Continuous
 62
     7
370
    25
100
AcDbLine
 10
23.6875
 20
24.5
 30
0.0
 11
0.3125
 21
24.5
 31
0.0
  0
LINE
  5
1E3
330
1F
100
AcDbEntity
  8
0
  6
Continuous
 62
     7
370
    25
100
AcDbLine
 10
23.6875
 20
24.25
 30
0.0
 11
0.3125
 21
24.25
 31
0.0
  0
LINE
  5
1E4
330
1F
100
AcDbEntity
  8
0
  6
Continuous
 62
     7
370
    25
100
AcDbLine
 10
23.6875
 20
24.0
 30
0.0
 11
0.3125
 21
24.0
 31
0.0
  0
LINE
  5
1E5
330
1F
100
AcDbEntity
  8
0
  6
Continuous
 62
     7
370
    25
100
AcDbLine
 10
23.6875
 20
12.5
 30
0.0
 11
0.3125
 21
12.5
 31
0.0
  0
LINE
  5
1E6
330
1F
100
AcDbEntity
  8
0
  6
Continuous
 62
     7
370
    25
100
AcDbLine
 10
23.6875
 20
12.25
 30
0.0
 11
0.3125
 21
12.25
 31
0.0
  0
LINE
  5
1E7
330
1F
100
AcDbEntity
  8
0
  6
Continuous
 62
     7
370
    25
100
AcDbLine
 10
23.6875
 20
60.191
 30
0.0
 11
23.6875
 21
0.25
 31
0.0
  0
LINE
  5
1E8
330
1F
100
AcDbEntity
  8
0
  6
Continuous
 62
     7
370
    25
100
AcDbLine
 10
0.3125
 20
60.191
 30
0.0
 11
0.3125
 21
0.25
 31
0.0
  0
LINE
  5
1E9
330
1F
100
AcDbEntity
  8
0
  6
Continuous
 62
     7
370
    25
100
AcDbLine
 10
23.6875
 20
0.5
 30
0.0
 11
0.3125
 21
0.5
 31
0.0
  0
LINE
  5
1EA
330
1F
100
AcDbEntity
  8
0
  6
Continuous
 62
     7
370
    25
100
AcDbLine
 10
23.6875
 20
12.0
 30
0.0
 11
0.3125
 21
12.0
 31
0.0
  0
LINE
  5
1EB
330
1F
100
AcDbEntity
  8
0
  6
Continuous
 62
     7
370
    25
100
AcDbLine
 10
-0.3125
 20
48.5
 30
0.0
 11
-23.6875
 21
48.5
 31
0.0
  0
LINE
  5
1EC
330
1F
100
AcDbEntity
  8
0
  6
Continuous
 62
     7
370
    25
100
AcDbLine
 10
-0.3125
 20
60.0
 30
0.0
 11
-23.6875
 21
60.0
 31
0.0
  0
LINE
  5
1ED
330
1F
100
AcDbEntity
  8
0
  6
Continuous
 62
     7
370
    25
100
AcDbLine
 10
-0.3125
 20
48.25
 30
0.0
 11
-23.6875
 21
48.25
 31
0.0
  0
LINE
  5
1EE
330
1F
100
AcDbEntity
  8
0
  6
Continuous
 62
     7
370
    25
100
AcDbLine
 10
-0.3125
 20
48.0
 30
0.0
 11
-23.6875
 21
48.0
 31
0.0
  0
LINE
  5
1EF
330
1F
100
AcDbEntity
  8
0
  6
Continuous
 62
     7
370
    25
100
AcDbLine
 10
-0.3125
 20
36.5
 30
0.0
 11
-23.6875
 21
36.5
 31
0.0
  0
LINE
  5
1F0
330
1F
100
AcDbEntity
  8
0
  6
Continuous
 62
     7
370
    25
100
AcDbLine
 10
-0.3125
 20
36.25
 30
0.0
 11
-23.6875
 21
36.25
 31
0.0
  0
LINE
  5
1F1
330
1F
100
AcDbEntity
  8
0
  6
Continuous
 62
     7
370
    25
100
AcDbLine
 10
-0.3125
 20
36.0
 30
0.0
 11
-23.6875
 21
36.0
 31
0.0
  0
LINE
  5
1F2
330
1F
100
AcDbEntity
  8
0
  6
Continuous
 62
     7
370
    25
100
AcDbLine
 10
-0.3125
 20
24.5
 30
0.0
 11
-23.6875
 21
24.5
 31
0.0
  0
LINE
  5
1F3
330
1F
100
AcDbEntity
  8
0
  6
Continuous
 62
     7
370
    25
100
AcDbLine
 10
-0.3125
 20
24.25
 30
0.0
 11
-23.6875
 21
24.25
 31
0.0
  0
LINE
  5
1F4
330
1F
100
AcDbEntity
  8
0
  6
Continuous
 62
     7
370
    25
100
AcDbLine
 10
-0.3125
 20
12.5
 30
0.0
 11
-23.6875
 21
12.5
 31
0.0
  0
LINE
  5
1F5
330
1F
100
AcDbEntity
  8
0
  6
Continuous
 62
     7
370
    25
100
AcDbLine
 10
-0.3125
 20
24.0
 30
0.0
 11
-23.6875
 21
24.0
 31
0.0
  0
LINE
  5
1F6
330
1F
100
AcDbEntity
  8
0
  6
Continuous
 62
     7
370
    25
100
AcDbLine
 10
-0.3125
 20
12.25
 30
0.0
 11
-23.6875
 21
12.25
 31
0.0
  0
LINE
  5
1F7
330
1F
100
AcDbEntity
  8
0
  6
Continuous
 62
     7
370
    25
100
AcDbLine
 10
21.9771823075
 20
-3.0
 30
0.0
 11
22.0018782195
 21
-3.0003690585
 31
0.0
  0
LINE
  5
1F8
330
1F
100
AcDbEntity
  8
0
  6
Continuous
 62
     7
370
    25
100
AcDbLine
 10
23.1217156184
 20
-6.0
 30
0.0
 11
23.7333217598
 21
-6.0
 31
0.0
  0
LINE
  5
1F9
330
1F
100
AcDbEntity
  8
0
  6
Continuous
 62
     7
370
    25
100
AcDbLine
 10
22.7815289728
 20
-3.0
 30
0.0
 11
22.7676344768
 21
-3.0001168163
 31
0.0
  0
LINE
  5
1FA
330
1F
100
AcDbEntity
  8
0
  6
Continuous
 62
     7
370
    25
100
AcDbLine
 10
22.7815289728
 20
-7.0
 30
0.0
 11
22.8123830533
 21
-6.9994239068
 31
0.0
  0
LINE
  5
1FB
330
1F
100
AcDbEntity
  8
0
  6
Continuous
 62
     7
370
    25
100
AcDbLine
 10
-21.9771823075
 20
-3.0
 30
0.0
 11
-21.9910768034
 21
-3.0001168163
 31
0.0
  0
LINE
  5
1FC
330
1F
100
AcDbEntity
  8
0
  6
Continuous
 62
     7
370
    25
100
AcDbLine
 10
-23.1220202265
 20
-6.0
 30
0.0
 11
-23.7333217598
 21
-6.0
 31
0.0
  0
LINE
  5
1FD
330
1F
100
AcDbEntity
  8
0
  6
Continuous
 62
     7
370
    25
100
AcDbLine
 10
-22.7815289728
 20
-3.0
 30
0.0
 11
-22.7568330607
 21
-3.0003690585
 31
0.0
  0
LINE
  5
1FE
330
1F
100
AcDbEntity
  8
0
  6
Continuous
 62
     7
370
    25
100
AcDbLine
 10
-0.3125
 20
12.0
 30
0.0
 11
-23.6875
 21
12.0
 31
0.0
  0
LINE
  5
1FF
330
1F
100
AcDbEntity
  8
0
  6
Continuous
 62
     7
370
    25
100
AcDbLine
 10
-0.3125
 20
60.191
 30
0.0
 11
-0.3125
 21
0.25
 31
0.0
  0
LINE
  5
200
330
1F
100
AcDbEntity
  8
0
  6
Continuous
 62
     7
370
    25
100
AcDbLine
 10
-23.6875
 20
60.191
 30
0.0
 11
-23.6875
 21
0.25
 31
0.0
  0
LINE
  5
201
330
1F
100
AcDbEntity
  8
0
  6
Continuous
 62
     7
370
    25
100
AcDbLine
 10
-0.3125
 20
0.5
 30
0.0
 11
-23.6875
 21
0.5
 31
0.0
  0
LINE
  5
202
330
1F
100
AcDbEntity
  8
0
  6
Continuous
 62
     7
370
    25
100
AcDbLine
 10
-23.875
 20
0.25
 30
0.0
 11
23.875
 21
0.25
 31
0.0
  0
LINE
  5
203
330
1F
100
AcDbEntity
  8
0
  6
Continuous
 62
     7
370
    25
100
AcDbLine
 10
-0.125
 20
60.191
 30
0.0
 11
-0.125
 21
0.25
 31
0.0
  0
LINE
  5
204
330
1F
100
AcDbEntity
  8
0
  6
Continuous
 62
     7
370
    25
100
AcDbLine
 10
0.125
 20
60.191
 30
0.0
 11
0.125
 21
0.25
 31
0.0
  0
LINE
  5
205
330
1F
100
AcDbEntity
  8
0
  6
Continuous
 62
     7
370
    25
100
AcDbLine
 10
23.875
 20
60.191
 30
0.0
 11
-23.875
 21
60.191
 31
0.0
  0
LINE
  5
206
330
1F
100
AcDbEntity
  8
0
  6
Continuous
 62
     7
370
    25
100
AcDbLine
 10
0.3125
 20
59.191
 30
0.0
 11
0.125
 21
59.191
 31
0.0
  0
LINE
  5
207
330
1F
100
AcDbEntity
  8
0
  6
Continuous
 62
     7
370
    25
100
AcDbLine
 10
-0.125
 20
59.191
 30
0.0
 11
-0.3125
 21
59.191
 31
0.0
  0
LINE
  5
208
330
1F
100
AcDbEntity
  8
0
  6
Continuous
 62
     7
370
    25
100
AcDbLine
 10
-0.3125
 20
1.25
 30
0.0
 11
-0.125
 21
1.25
 31
0.0
  0
LINE
  5
209
330
1F
100
AcDbEntity
  8
0
  6
Continuous
 62
     7
370
    25
100
AcDbLine
 10
0.125
 20
1.25
 30
0.0
 11
0.3125
 21
1.25
 31
0.0
  0
LINE
  5
20A
330
1F
100
AcDbEntity
  8
0
  6
Continuous
 62
     7
370
    25
100
AcDbLine
 10
-18.875
 20
-3.0
 30
0.0
 11
-18.875
 21
-0.125
 31
0.0
  0
LINE
  5
20B
330
1F
100
AcDbEntity
  8
0
  6
Continuous
 62
     7
370
    25
100
AcDbLine
 10
18.875
 20
-3.0
 30
0.0
 11
18.875
 21
0.0
 31
0.0
  0
LINE
  5
20C
330
1F
100
AcDbEntity
  8
0
  6
Continuous
 62
     7
370
    25
100
AcDbLine
 10
-19.2104219012
 20
-0.125
 30
0.0
 11
19.2104219012
 21
-0.125
 31
0.0
  0
LINE
  5
20D
330
1F
100
AcDbEntity
  8
0
  6
Continuous
 62
     7
370
    25
100
AcDbLine
 10
-18.875
 20
-0.75
 30
0.0
 11
18.875
 21
-0.75
 31
0.0
  0
LINE
  5
20E
330
1F
100
AcDbEntity
  8
0
  6
Continuous
 62
     7
370
    25
100
AcDbLine
 10
24.375
 20
-3.0
 30
0.0
 11
24.375
 21
60.441
 31
0.0
  0
LINE
  5
20F
330
1F
100
AcDbEntity
  8
0
  6
Continuous
 62
     7
370
    25
100
AcDbLine
 10
24.375
 20
-3.0
 30
0.0
 11
18.875
 21
-3.0
 31
0.0
  0
LINE
  5
210
330
1F
100
AcDbEntity
  8
0
  6
Continuous
 62
     7
370
    25
100
AcDbLine
 10
22.375
 20
-3.0
 30
0.0
 11
22.375
 21
0.0
 31
0.0
  0
LINE
  5
211
330
1F
100
AcDbEntity
  8
0
  6
Continuous
 62
     7
370
    25
100
AcDbLine
 10
-22.375
 20
-3.0
 30
0.0
 11
-22.375
 21
0.0
 31
0.0
  0
LINE
  5
212
330
1F
100
AcDbEntity
  8
0
  6
Continuous
 62
     7
370
    25
100
AcDbLine
 10
-24.375
 20
60.441
 30
0.0
 11
-24.375
 21
-3.0
 31
0.0
  0
LINE
  5
213
330
1F
100
AcDbEntity
  8
0
  6
Continuous
 62
     7
370
    25
100
AcDbLine
 10
-24.375
 20
0.0
 30
0.0
 11
24.375
 21
0.0
 31
0.0
  0
LINE
  5
214
330
1F
100
AcDbEntity
  8
0
  6
Continuous
 62
     7
370
    25
100
AcDbLine
 10
-24.375
 20
-3.0
 30
0.0
 11
-18.875
 21
-3.0
 31
0.0
  0
LINE
  5
215
330
1F
100
AcDbEntity
  8
0
  6
Continuous
 62
     7
370
    25
100
AcDbLine
 10
18.875
 20
-2.0
 30
0.0
 11
-18.875
 21
-2.0
 31
0.0
  0
LINE
  5
216
330
1F
100
AcDbEntity
  8
0
  6
Continuous
 62
     7
370
    25
100
AcDbLine
 10
-23.875
 20
60.191
 30
0.0
 11
-23.875
 21
0.25
 31
0.0
  0
LINE
  5
217
330
1F
100
AcDbEntity
  8
0
  6
Continuous
 62
     7
370
    25
100
AcDbLine
 10
23.875
 20
0.25
 30
0.0
 11
23.875
 21
60.191
 31
0.0
  0
LINE
  5
218
330
1F
100
AcDbEntity
  8
0
  6
Continuous
 62
     7
370
    25
100
AcDbLine
 10
24.375
 20
60.441
 30
0.0
 11
-24.375
 21
60.441
 31
0.0
  0
ARC
  5
219
330
1F
100
AcDbEntity
  8
0
  6
Continuous
 62
     7
370
    25
100
AcDbCircle
 10
19.625
 20
-0.75
 30
0.0
 40
0.7500000000000036
100
AcDbArc
 50
90.0
 51
180.0
  0
ARC
  5
21A
330
1F
100
AcDbEntity
  8
0
  6
Continuous
 62
     7
370
    25
100
AcDbCircle
 10
-19.625
 20
-0.75
 30
0.0
 40
0.7500000000000052
100
AcDbArc
 50
0.0
 51
90.0
  0
SPLINE
  5
21D
330
1B
100
AcDbEntity
 67
     1
  8
0
  6
Continuous
 62
     7
370
    25
100
AcDbSpline
210
0.0
220
0.0
230
1.0
 70
     8
 71
     3
 72
    15
 73
    11
 74
     0
 42
0.00000001
 43
0.00000001
 40
0.0
 40
0.0
 40
0.0
 40
0.0
 40
0.0201910045973002
 40
0.0769272333174383
 40
0.2039978704682904
 40
0.2957706179129557
 40
0.4127538118935089
 40
0.6408456165993281
 40
0.9548947999240234
 40
1.0
 40
1.0
 40
1.0
 40
1.0
 10
24.47606644234249
 20
-12.29361166273613
 30
0.0
 10
24.47704109316638
 20
-12.28984255510333
 30
0.0
 10
24.48075448894971
 20
-12.27548234727564
 30
0.0
 10
24.47271454180117
 20
-12.23589367313179
 30
0.0
 10
24.45366498318255
 20
-12.18702726445324
 30
0.0
 10
24.4247472377434
 20
-12.12934225225466
 30
0.0
 10
24.38346504612261
 20
-12.05650671657979
 30
0.0
 10
24.31459193454864
 20
-11.95052232379926
 30
0.0
 10
24.25000719943888
 20
-11.85819006131301
 30
0.0
 10
24.20691351242031
 20
-11.8045047590396
 30
0.0
 10
24.20150149612642
 20
-11.79776257124489
 30
0.0
  0
SPLINE
  5
21E
330
1B
100
AcDbEntity
 67
     1
  8
0
  6
Continuous
 62
     7
370
    25
100
AcDbSpline
210
0.0
220
0.0
230
1.0
 70
     8
 71
     3
 72
    10
 73
     6
 74
     0
 42
0.00000001
 43
0.00000001
 40
0.0
 40
0.0
 40
0.0
 40
0.0
 40
0.4375088723177092
 40
0.8924921428063518
 40
1.0
 40
1.0
 40
1.0
 40
1.0
 10
24.46927752478322
 20
-12.30410633844051
 30
0.0
 10
24.47057221488939
 20
-12.30279355072221
 30
0.0
 10
24.47321330589404
 20
-12.30011554166252
 30
0.0
 10
24.47553139020617
 20
-12.29639838621006
 30
0.0
 10
24.47598058802037
 20
-12.29405881963642
 30
0.0
 10
24.47606644234249
 20
-12.29361166273614
 30
0.0
  0
SPLINE
  5
21F
330
1B
100
AcDbEntity
 67
     1
  8
0
  6
Continuous
 62
     7
370
    25
100
AcDbSpline
210
0.0
220
0.0
230
1.0
 70
     8
 71
     3
 72
    16
 73
    12
 74
     0
 42
0.00000001
 43
0.00000001
 40
0.0
 40
0.0
 40
0.0
 40
0.0
 40
0.2787621485574792
 40
0.5912236956428669
 40
0.7356822889781586
 40
0.8552953573397034
 40
0.9028695223539388
 40
0.9418360783488736
 40
0.9732461239935426
 40
0.986974371963449
 40
1.0
 40
1.0
 40
1.0
 40
1.0
 10
22.44343483400021
 20
-13.35128654843355
 30
0.0
 10
22.47625615483585
 20
-13.38872856756561
 30
0.0
 10
22.54586654742588
 20
-13.46813895035301
 30
0.0
 10
22.64271690599256
 20
-13.55762233288176
 30
0.0
 10
22.72560455529186
 20
-13.618784524396
 30
0.0
 10
22.7741857625884
 20
-13.64660086378226
 30
0.0
 10
22.80891441500521
 20
-13.65912494838652
 30
0.0
 10
22.82976376350455
 20
-13.6629872141998
 30
0.0
 10
22.84499115644448
 20
-13.66184532940598
 30
0.0
 10
22.85482964970746
 20
-13.65817450962573
 30
0.0
 10
22.85869989330207
 20
-13.65534023750477
 30
0.0
 10
22.86058419423335
 20
-13.65396031878222
 30
0.0
  0
SPLINE
  5
227
330
1B
100
AcDbEntity
 67
     1
  8
0
  6
Continuous
 62
     7
370
    25
100
AcDbSpline
210
0.0
220
0.0
230
1.0
 70
     8
 71
     3
 72
    17
 73
    13
 74
     0
 42
0.00000001
 43
0.00000001
 40
0.0
 40
0.0
 40
0.0
 40
0.0
 40
0.2495948028744375
 40
0.4458583759184827
 40
0.519723244520783
 40
0.6067990674599967
 40
0.7193334269600054
 40
0.8914945492780844
 40
0.9560257721076276
 40
0.9799283145450832
 40
0.9902382624471091
 40
0.9999999999999999
 40
0.9999999999999999
 40
0.9999999999999999
 40
0.9999999999999999
 10
24.2017064152564
 20
11.79729764750285
 30
0.0
 10
24.23114380958353
 20
11.83636365803285
 30
0.0
 10
24.2837286738308
 20
11.90614839636844
 30
0.0
 10
24.34085605703905
 20
11.99051443337467
 30
0.0
 10
24.37829669845912
 20
12.04965536205324
 30
0.0
 10
24.40589285310144
 20
12.09560596892588
 30
0.0
 10
24.44085334627404
 20
12.15952545540559
 30
0.0
 10
24.46955786167876
 20
12.22185666959699
 30
0.0
 10
24.4802957494432
 20
12.27268526065837
 30
0.0
 10
24.47734014181848
 20
12.29212886142913
 30
0.0
 10
24.47345668413903
 20
12.29996892225416
 30
0.0
 10
24.47064497956079
 20
12.30275254236596
 30
0.0
 10
24.46927752478322
 20
12.30410633844051
 30
0.0
  0
SPLINE
  5
228
330
1B
100
AcDbEntity
 67
     1
  8
0
  6
Continuous
 62
     7
370
    25
100
AcDbSpline
210
0.0
220
0.0
230
1.0
 70
     8
 71
     3
 72
    16
 73
    12
 74
     0
 42
0.00000001
 43
0.00000001
 40
0.0
 40
0.0
 40
0.0
 40
0.0
 40
0.0161442534713504
 40
0.0346105818160092
 40
0.0568313743799097
 40
0.0842349629181734
 40
0.1594747670179864
 40
0.2682795429078161
 40
0.4696098668589204
 40
0.723671399247098
 40
1.0
 40
1.0
 40
1.0
 40
1.0
 10
22.86058419423335
 20
13.65396031878222
 30
0.0
 10
22.85821543700758
 20
13.65563461190642
 30
0.0
 10
22.85313721732339
 20
13.65922401659842
 30
0.0
 10
22.84318208270252
 20
13.66198001341154
 30
0.0
 10
22.83098758246368
 20
13.66265583631881
 30
0.0
 10
22.8087764940726
 20
13.65960463263753
 30
0.0
 10
22.77314074671699
 20
13.64604832398046
 30
0.0
 10
22.71352896478727
 20
13.61138622549996
 30
0.0
 10
22.63378896676576
 20
13.54931503995216
 30
0.0
 10
22.53836299976787
 20
13.45976427682882
 30
0.0
 10
22.47595095903428
 20
13.38844385945275
 30
0.0
 10
22.44343483400021
 20
13.35128654843355
 30
0.0
  0
SPLINE
  5
230
330
1B
100
AcDbEntity
 67
     1
  8
0
  6
Continuous
 62
     7
370
    25
100
AcDbSpline
210
0.0
220
0.0
230
1.0
 70
     8
 71
     3
 72
    15
 73
    11
 74
     0
 42
0.00000001
 43
0.00000001
 40
0.0
 40
0.0
 40
0.0
 40
0.0
 40
0.0201910045973004
 40
0.0769272333174387
 40
0.2039978704682916
 40
0.2957706179129575
 40
0.4127538118935114
 40
0.640845616599332
 40
0.9548947999240291
 40
1.0
 40
1.0
 40
1.0
 40
1.0
 10
-24.47606644234249
 20
12.29361166273613
 30
0.0
 10
-24.47704109316638
 20
12.28984255510333
 30
0.0
 10
-24.48075448894971
 20
12.27548234727564
 30
0.0
 10
-24.47271454180116
 20
12.23589367313179
 30
0.0
 10
-24.45366498318256
 20
12.18702726445325
 30
0.0
 10
-24.42474723774339
 20
12.12934225225465
 30
0.0
 10
-24.38346504612262
 20
12.05650671657979
 30
0.0
 10
-24.31459193454862
 20
11.95052232379926
 30
0.0
 10
-24.25000719943891
 20
11.85819006131301
 30
0.0
 10
-24.2069135124203
 20
11.8045047590396
 30
0.0
 10
-24.20150149612641
 20
11.79776257124489
 30
0.0
  0
SPLINE
  5
231
330
1B
100
AcDbEntity
 67
     1
  8
0
  6
Continuous
 62
     7
370
    25
100
AcDbSpline
210
0.0
220
0.0
230
1.0
 70
     8
 71
     3
 72
    10
 73
     6
 74
     0
 42
0.00000001
 43
0.00000001
 40
0.0
 40
0.0
 40
0.0
 40
0.0
 40
0.4375088723177092
 40
0.8924921428063518
 40
1.0
 40
1.0
 40
1.0
 40
1.0
 10
-24.46927752478322
 20
12.30410633844051
 30
0.0
 10
-24.47057221488939
 20
12.30279355072221
 30
0.0
 10
-24.47321330589404
 20
12.30011554166252
 30
0.0
 10
-24.47553139020617
 20
12.29639838621006
 30
0.0
 10
-24.47598058802037
 20
12.29405881963642
 30
0.0
 10
-24.47606644234249
 20
12.29361166273614
 30
0.0
  0
SPLINE
  5
232
330
1B
100
AcDbEntity
 67
     1
  8
0
  6
Continuous
 62
     7
370
    25
100
AcDbSpline
210
0.0
220
0.0
230
1.0
 70
     8
 71
     3
 72
    16
 73
    12
 74
     0
 42
0.00000001
 43
0.00000001
 40
0.0
 40
0.0
 40
0.0
 40
0.0
 40
0.2787621485574792
 40
0.5912236956428669
 40
0.7356822889781586
 40
0.8552953573397034
 40
0.9028695223539388
 40
0.9418360783488736
 40
0.9732461239935426
 40
0.986974371963449
 40
1.0
 40
1.0
 40
1.0
 40
1.0
 10
-22.44343483400021
 20
13.35128654843355
 30
0.0
 10
-22.47625615483585
 20
13.38872856756561
 30
0.0
 10
-22.54586654742588
 20
13.46813895035301
 30
0.0
 10
-22.64271690599256
 20
13.55762233288176
 30
0.0
 10
-22.72560455529186
 20
13.618784524396
 30
0.0
 10
-22.7741857625884
 20
13.64660086378226
 30
0.0
 10
-22.80891441500521
 20
13.65912494838652
 30
0.0
 10
-22.82976376350455
 20
13.6629872141998
 30
0.0
 10
-22.84499115644448
 20
13.66184532940598
 30
0.0
 10
-22.85482964970746
 20
13.65817450962573
 30
0.0
 10
-22.85869989330207
 20
13.65534023750477
 30
0.0
 10
-22.86058419423335
 20
13.65396031878222
 30
0.0
  0
SPLINE
  5
23A
330
1B
100
AcDbEntity
 67
     1
  8
0
  6
Continuous
 62
     7
370
    25
100
AcDbSpline
210
0.0
220
0.0
230
1.0
 70
     8
 71
     3
 72
    16
 73
    12
 74
     0
 42
0.00000001
 43
0.00000001
 40
0.0
 40
0.0
 40
0.0
 40
0.0
 40
0.0161442534713504
 40
0.0346105818160092
 40
0.0568313743799097
 40
0.0842349629181734
 40
0.1594747670179864
 40
0.2682795429078161
 40
0.4696098668589204
 40
0.723671399247098
 40
1.0
 40
1.0
 40
1.0
 40
1.0
 10
-22.86058419423335
 20
-13.65396031878222
 30
0.0
 10
-22.85821543700758
 20
-13.65563461190642
 30
0.0
 10
-22.85313721732339
 20
-13.65922401659842
 30
0.0
 10
-22.84318208270252
 20
-13.66198001341154
 30
0.0
 10
-22.83098758246368
 20
-13.66265583631881
 30
0.0
 10
-22.8087764940726
 20
-13.65960463263753
 30
0.0
 10
-22.77314074671699
 20
-13.64604832398046
 30
0.0
 10
-22.71352896478727
 20
-13.61138622549996
 30
0.0
 10
-22.63378896676576
 20
-13.54931503995216
 30
0.0
 10
-22.53836299976787
 20
-13.45976427682882
 30
0.0
 10
-22.47595095903428
 20
-13.38844385945275
 30
0.0
 10
-22.44343483400021
 20
-13.35128654843355
 30
0.0
  0
SPLINE
  5
23B
330
1B
100
AcDbEntity
 67
     1
  8
0
  6
Continuous
 62
     7
370
    25
100
AcDbSpline
210
0.0
220
0.0
230
1.0
 70
     8
 71
     3
 72
    17
 73
    13
 74
     0
 42
0.00000001
 43
0.00000001
 40
0.0
 40
0.0
 40
0.0
 40
0.0
 40
0.2495948028744398
 40
0.4458583759184844
 40
0.5197232445207844
 40
0.6067990674599979
 40
0.7193334269600064
 40
0.8914945492780847
 40
0.9560257721076278
 40
0.9799283145450833
 40
0.9902382624471092
 40
0.9999999999999999
 40
0.9999999999999999
 40
0.9999999999999999
 40
0.9999999999999999
 10
-24.2017064152564
 20
-11.79729764750285
 30
0.0
 10
-24.23114380958354
 20
-11.83636365803284
 30
0.0
 10
-24.2837286738308
 20
-11.90614839636844
 30
0.0
 10
-24.34085605703906
 20
-11.99051443337467
 30
0.0
 10
-24.37829669845912
 20
-12.04965536205324
 30
0.0
 10
-24.40589285310143
 20
-12.09560596892588
 30
0.0
 10
-24.44085334627405
 20
-12.15952545540559
 30
0.0
 10
-24.46955786167873
 20
-12.22185666959698
 30
0.0
 10
-24.48029574944321
 20
-12.27268526065837
 30
0.0
 10
-24.47734014181848
 20
-12.29212886142912
 30
0.0
 10
-24.47345668413903
 20
-12.29996892225416
 30
0.0
 10
-24.47064497956079
 20
-12.30275254236596
 30
0.0
 10
-24.46927752478322
 20
-12.30410633844051
 30
0.0
  0
SPLINE
  5
24D
330
1B
100
AcDbEntity
 67
     1
  8
0
  6
Continuous
 62
     7
370
    25
100
AcDbSpline
210
0.0
220
0.0
230
1.0
 70
    24
 71
     3
 72
    14
 73
    10
 74
     0
 42
0.00000001
 43
0.00000001
 40
0.0
 40
0.0
 40
0.0
 40
0.0
 40
0.0212680965444787
 40
0.1843232045038297
 40
0.347562731598192
 40
0.5106340482721894
 40
0.6736891562054512
 40
0.8369286833107838
 40
1.0
 40
1.0
 40
1.0
 40
1.0
 10
22.14867042077209
 20
-13.0
 30
0.0
 10
22.15281657547384
 20
-13.00494119476125
 30
0.0
 10
22.18874985795613
 20
-13.04776481325324
 30
0.0
 10
22.24570707094007
 20
-13.115643776451
 30
0.0
 10
22.31682503777156
 20
-13.20039886892043
 30
0.0
 10
22.37258361635319
 20
-13.26684935526303
 30
0.0
 10
22.41307079504666
 20
-13.31510009592497
 30
0.0
 10
22.43866721866631
 20
-13.34560472573126
 30
0.0
 10
22.44184617513043
 20
-13.34939325851808
 30
0.0
 10
22.44343483400021
 20
-13.35128654843355
 30
0.0
  0
SPLINE
  5
252
330
1B
100
AcDbEntity
 67
     1
  8
0
  6
Continuous
 62
     7
370
    25
100
AcDbSpline
210
0.0
220
0.0
230
1.0
 70
    24
 71
     3
 72
    14
 73
    10
 74
     0
 42
0.00000001
 43
0.00000001
 40
0.0
 40
0.0
 40
0.0
 40
0.0
 40
0.0212680965444787
 40
0.1843232045038297
 40
0.347562731598192
 40
0.5106340482721894
 40
0.6736891562054512
 40
0.8369286833107838
 40
1.0
 40
1.0
 40
1.0
 40
1.0
 10
22.14867042077209
 20
13.0
 30
0.0
 10
22.15281657547384
 20
13.00494119476125
 30
0.0
 10
22.18874985795613
 20
13.04776481325324
 30
0.0
 10
22.24570707094007
 20
13.115643776451
 30
0.0
 10
22.31682503777156
 20
13.20039886892043
 30
0.0
 10
22.37258361635319
 20
13.26684935526303
 30
0.0
 10
22.41307079504666
 20
13.31510009592497
 30
0.0
 10
22.43866721866631
 20
13.34560472573126
 30
0.0
 10
22.44184617513043
 20
13.34939325851808
 30
0.0
 10
22.44343483400021
 20
13.35128654843355
 30
0.0
  0
SPLINE
  5
257
330
1B
100
AcDbEntity
 67
     1
  8
0
  6
Continuous
 62
     7
370
    25
100
AcDbSpline
210
0.0
220
0.0
230
1.0
 70
    24
 71
     3
 72
    14
 73
    10
 74
     0
 42
0.00000001
 43
0.00000001
 40
0.0
 40
0.0
 40
0.0
 40
0.0
 40
0.0212680965444704
 40
0.1843232045038228
 40
0.3475627315981865
 40
0.5106340482721852
 40
0.6736891562054483
 40
0.8369286833107825
 40
1.0
 40
1.0
 40
1.0
 40
1.0
 10
-22.1486704207721
 20
13.00000000000001
 30
0.0
 10
-22.15281657547384
 20
13.00494119476125
 30
0.0
 10
-22.18874985795614
 20
13.04776481325325
 30
0.0
 10
-22.24570707094006
 20
13.115643776451
 30
0.0
 10
-22.31682503777158
 20
13.20039886892044
 30
0.0
 10
-22.37258361635318
 20
13.26684935526302
 30
0.0
 10
-22.41307079504665
 20
13.31510009592497
 30
0.0
 10
-22.43866721866631
 20
13.34560472573126
 30
0.0
 10
-22.44184617513043
 20
13.34939325851808
 30
0.0
 10
-22.44343483400022
 20
13.35128654843355
 30
0.0
  0
SPLINE
  5
25C
330
1B
100
AcDbEntity
 67
     1
  8
0
  6
Continuous
 62
     7
370
    25
100
AcDbSpline
210
0.0
220
0.0
230
1.0
 70
    24
 71
     3
 72
    14
 73
    10
 74
     0
 42
0.00000001
 43
0.00000001
 40
0.0
 40
0.0
 40
0.0
 40
0.0
 40
0.0212680965444893
 40
0.1843232045038386
 40
0.3475627315981991
 40
0.5106340482721946
 40
0.6736891562054547
 40
0.8369286833107856
 40
1.0
 40
1.0
 40
1.0
 40
1.0
 10
-22.14867042077208
 20
-12.99999999999999
 30
0.0
 10
-22.15281657547382
 20
-13.00494119476125
 30
0.0
 10
-22.18874985795615
 20
-13.04776481325324
 30
0.0
 10
-22.24570707094006
 20
-13.115643776451
 30
0.0
 10
-22.31682503777157
 20
-13.20039886892043
 30
0.0
 10
-22.37258361635319
 20
-13.26684935526303
 30
0.0
 10
-22.41307079504665
 20
-13.31510009592497
 30
0.0
 10
-22.43866721866631
 20
-13.34560472573126
 30
0.0
 10
-22.44184617513043
 20
-13.34939325851807
 30
0.0
 10
-22.44343483400021
 20
-13.35128654843355
 30
0.0
  0
SPLINE
  5
293
330
1B
100
AcDbEntity
 67
     1
  8
0
  6
Continuous
 62
     7
370
    25
100
AcDbSpline
210
0.0
220
0.0
230
1.0
 70
    24
 71
     3
 72
    15
 73
    11
 74
     0
 42
0.00000001
 43
0.00000001
 40
0.0
 40
0.0
 40
0.0
 40
0.0
 40
0.1364748747341223
 40
0.2729497494682448
 40
0.4094246242023661
 40
0.5458994989364884
 40
0.6823743736706105
 40
0.8188492484047325
 40
0.9553241231388546
 40
0.9999999999999999
 40
0.9999999999999999
 40
0.9999999999999999
 40
0.9999999999999999
 10
22.86058419423335
 20
-13.65396031878223
 30
0.0
 10
22.85846175479059
 20
-13.65143089395124
 30
0.0
 10
22.85421687590506
 20
-13.64637204428929
 30
0.0
 10
22.82006382224976
 20
-13.60567001989752
 30
0.0
 10
22.76620352043571
 20
-13.54148181171242
 30
0.0
 10
22.69147574126401
 20
-13.45242471241795
 30
0.0
 10
22.59799215438696
 20
-13.34101531190863
 30
0.0
 10
22.48610185726146
 20
-13.20766964833288
 30
0.0
 10
22.38973856453281
 20
-13.0928283480293
 30
0.0
 10
22.32725595752443
 20
-13.01836447665241
 30
0.0
 10
22.31184633193862
 20
-13.0
 30
0.0
  0
SPLINE
  5
295
330
1B
100
AcDbEntity
 67
     1
  8
0
  6
Continuous
 62
     7
370
    25
100
AcDbSpline
210
0.0
220
0.0
230
1.0
 70
    24
 71
     3
 72
    13
 73
     9
 74
     0
 42
0.00000001
 43
0.00000001
 40
0.0
 40
0.0
 40
0.0
 40
0.0
 40
0.0920690804766789
 40
0.2736552643813442
 40
0.4552414482860071
 40
0.6368276321906723
 40
0.8184138160953365
 40
1.0
 40
1.0
 40
1.0
 40
1.0
 10
24.1474003623274
 20
-11.92050807370974
 30
0.0
 10
24.16656083685645
 20
-11.94334263806555
 30
0.0
 10
24.22351116910448
 20
-12.01121340112159
 30
0.0
 10
24.29967354465899
 20
-12.10198018580918
 30
0.0
 10
24.3750295814735
 20
-12.19178601340653
 30
0.0
 10
24.42872175800284
 20
-12.25577385767959
 30
0.0
 10
24.46291905515412
 20
-12.29652860941663
 30
0.0
 10
24.46715803490685
 20
-12.30158042876588
 30
0.0
 10
24.46927752478322
 20
-12.30410633844051
 30
0.0
  0
SPLINE
  5
297
330
1B
100
AcDbEntity
 67
     1
  8
0
  6
Continuous
 62
     7
370
    25
100
AcDbSpline
210
0.0
220
0.0
230
1.0
 70
    24
 71
     3
 72
    15
 73
    11
 74
     0
 42
0.00000001
 43
0.00000001
 40
0.0
 40
0.0
 40
0.0
 40
0.0
 40
0.1364748747341216
 40
0.272949749468244
 40
0.4094246242023659
 40
0.5458994989364881
 40
0.6823743736706116
 40
0.8188492484047311
 40
0.9553241231388561
 40
1.0
 40
1.0
 40
1.0
 40
1.0
 10
22.86058419423335
 20
13.65396031878223
 30
0.0
 10
22.85846175479059
 20
13.65143089395124
 30
0.0
 10
22.85421687590506
 20
13.64637204428928
 30
0.0
 10
22.82006382224976
 20
13.60567001989752
 30
0.0
 10
22.76620352043572
 20
13.54148181171242
 30
0.0
 10
22.69147574126401
 20
13.45242471241795
 30
0.0
 10
22.59799215438695
 20
13.34101531190863
 30
0.0
 10
22.48610185726147
 20
13.20766964833289
 30
0.0
 10
22.38973856453281
 20
13.0928283480293
 30
0.0
 10
22.32725595752443
 20
13.01836447665241
 30
0.0
 10
22.31184633193863
 20
13.0
 30
0.0
  0
SPLINE
  5
299
330
1B
100
AcDbEntity
 67
     1
  8
0
  6
Continuous
 62
     7
370
    25
100
AcDbSpline
210
0.0
220
0.0
230
1.0
 70
    24
 71
     3
 72
    13
 73
     9
 74
     0
 42
0.00000001
 43
0.00000001
 40
0.0
 40
0.0
 40
0.0
 40
0.0
 40
0.0920690804766786
 40
0.2736552643813437
 40
0.4552414482860066
 40
0.636827632190672
 40
0.8184138160953376
 40
1.0
 40
1.0
 40
1.0
 40
1.0
 10
24.1474003623274
 20
11.92050807370974
 30
0.0
 10
24.16656083685644
 20
11.94334263806555
 30
0.0
 10
24.22351116910449
 20
12.01121340112159
 30
0.0
 10
24.29967354465899
 20
12.10198018580918
 30
0.0
 10
24.3750295814735
 20
12.19178601340653
 30
0.0
 10
24.42872175800285
 20
12.25577385767959
 30
0.0
 10
24.46291905515412
 20
12.29652860941663
 30
0.0
 10
24.46715803490685
 20
12.30158042876588
 30
0.0
 10
24.46927752478322
 20
12.30410633844051
 30
0.0
  0
SPLINE
  5
29B
330
1B
100
AcDbEntity
 67
     1
  8
0
  6
Continuous
 62
     7
370
    25
100
AcDbSpline
210
0.0
220
0.0
230
1.0
 70
    24
 71
     3
 72
    15
 73
    11
 74
     0
 42
0.00000001
 43
0.00000001
 40
0.0
 40
0.0
 40
0.0
 40
0.0
 40
0.1364748747341232
 40
0.2729497494682466
 40
0.4094246242023688
 40
0.5458994989364919
 40
0.6823743736706149
 40
0.8188492484047379
 40
0.9553241231388608
 40
1.0
 40
1.0
 40
1.0
 40
1.0
 10
-22.86058419423335
 20
13.65396031878223
 30
0.0
 10
-22.85846175479059
 20
13.65143089395125
 30
0.0
 10
-22.85421687590507
 20
13.64637204428929
 30
0.0
 10
-22.82006382224975
 20
13.60567001989751
 30
0.0
 10
-22.76620352043572
 20
13.54148181171243
 30
0.0
 10
-22.69147574126401
 20
13.45242471241795
 30
0.0
 10
-22.59799215438695
 20
13.34101531190863
 30
0.0
 10
-22.48610185726146
 20
13.20766964833288
 30
0.0
 10
-22.38973856453281
 20
13.09282834802931
 30
0.0
 10
-22.32725595752443
 20
13.01836447665241
 30
0.0
 10
-22.31184633193863
 20
13.00000000000001
 30
0.0
  0
SPLINE
  5
29D
330
1B
100
AcDbEntity
 67
     1
  8
0
  6
Continuous
 62
     7
370
    25
100
AcDbSpline
210
0.0
220
0.0
230
1.0
 70
    24
 71
     3
 72
    13
 73
     9
 74
     0
 42
0.00000001
 43
0.00000001
 40
0.0
 40
0.0
 40
0.0
 40
0.0
 40
0.0920690804766745
 40
0.2736552643813407
 40
0.4552414482860045
 40
0.6368276321906706
 40
0.8184138160953357
 40
1.0
 40
1.0
 40
1.0
 40
1.0
 10
-24.1474003623274
 20
11.92050807370975
 30
0.0
 10
-24.16656083685645
 20
11.94334263806555
 30
0.0
 10
-24.22351116910448
 20
12.01121340112159
 30
0.0
 10
-24.299673544659
 20
12.10198018580919
 30
0.0
 10
-24.37502958147351
 20
12.19178601340653
 30
0.0
 10
-24.42872175800284
 20
12.25577385767959
 30
0.0
 10
-24.46291905515411
 20
12.29652860941663
 30
0.0
 10
-24.46715803490685
 20
12.30158042876588
 30
0.0
 10
-24.46927752478322
 20
12.30410633844051
 30
0.0
  0
SPLINE
  5
29F
330
1B
100
AcDbEntity
 67
     1
  8
0
  6
Continuous
 62
     7
370
    25
100
AcDbSpline
210
0.0
220
0.0
230
1.0
 70
    24
 71
     3
 72
    15
 73
    11
 74
     0
 42
0.00000001
 43
0.00000001
 40
0.0
 40
0.0
 40
0.0
 40
0.0
 40
0.136474874734121
 40
0.2729497494682426
 40
0.4094246242023638
 40
0.5458994989364855
 40
0.6823743736706082
 40
0.818849248404727
 40
0.9553241231388513
 40
1.0
 40
1.0
 40
1.0
 40
1.0
 10
-22.86058419423335
 20
-13.65396031878223
 30
0.0
 10
-22.85846175479059
 20
-13.65143089395124
 30
0.0
 10
-22.85421687590507
 20
-13.64637204428928
 30
0.0
 10
-22.82006382224976
 20
-13.60567001989752
 30
0.0
 10
-22.76620352043572
 20
-13.54148181171243
 30
0.0
 10
-22.69147574126401
 20
-13.45242471241795
 30
0.0
 10
-22.59799215438695
 20
-13.34101531190863
 30
0.0
 10
-22.48610185726147
 20
-13.20766964833289
 30
0.0
 10
-22.38973856453281
 20
-13.0928283480293
 30
0.0
 10
-22.32725595752442
 20
-13.01836447665241
 30
0.0
 10
-22.31184633193862
 20
-12.99999999999999
 30
0.0
  0
SPLINE
  5
2A1
330
1B
100
AcDbEntity
 67
     1
  8
0
  6
Continuous
 62
     7
370
    25
100
AcDbSpline
210
0.0
220
0.0
230
1.0
 70
    24
 71
     3
 72
    13
 73
     9
 74
     0
 42
0.00000001
 43
0.00000001
 40
0.0
 40
0.0
 40
0.0
 40
0.0
 40
0.0920690804766813
 40
0.2736552643813459
 40
0.4552414482860083
 40
0.6368276321906731
 40
0.8184138160953383
 40
1.0
 40
1.0
 40
1.0
 40
1.0
 10
-24.14740036232739
 20
-11.92050807370974
 30
0.0
 10
-24.16656083685644
 20
-11.94334263806554
 30
0.0
 10
-24.22351116910449
 20
-12.01121340112158
 30
0.0
 10
-24.29967354465898
 20
-12.10198018580918
 30
0.0
 10
-24.3750295814735
 20
-12.19178601340653
 30
0.0
 10
-24.42872175800284
 20
-12.25577385767959
 30
0.0
 10
-24.46291905515411
 20
-12.29652860941663
 30
0.0
 10
-24.46715803490685
 20
-12.30158042876588
 30
0.0
 10
-24.46927752478322
 20
-12.30410633844051
 30
0.0
  0
LINE
  5
2A3
330
1B
100
AcDbEntity
 67
     1
  8
0
  6
Continuous
 62
     7
370
    25
100
AcDbLine
 10
22.8605841942
 20
-13.6539603188
 30
0.0
 11
23.2627575269
 21
-13.3164968237
 31
0.0
  0
LINE
  5
2A4
330
1B
100
AcDbEntity
 67
     1
  8
0
  6
Continuous
 62
     7
370
    25
100
AcDbLine
 10
24.0671041921
 20
-12.6415698335
 30
0.0
 11
24.4692775248
 21
-12.3041063384
 31
0.0
  0
LINE
  5
2A5
330
1B
100
AcDbEntity
 67
     1
  8
0
  6
Continuous
 62
     7
370
    25
100
AcDbLine
 10
23.3374899677
 20
-13.1722009045
 30
0.0
 11
23.9120233001
 21
-12.6901101973
 31
0.0
  0
LINE
  5
2A6
330
1B
100
AcDbEntity
 67
     1
  8
0
  6
Continuous
 62
     7
370
    25
100
AcDbLine
 10
23.7513263977
 20
-12.4985990865
 30
0.0
 11
23.7896286198
 21
-12.466459706
 31
0.0
  0
LINE
  5
2A7
330
1B
100
AcDbEntity
 67
     1
  8
0
  6
Continuous
 62
     7
370
    25
100
AcDbLine
 10
23.1384908432
 20
-13.0128291743
 30
0.0
 11
23.1767930653
 21
-12.9806897938
 31
0.0
  0
LINE
  5
2A8
330
1B
100
AcDbEntity
 67
     1
  8
0
  6
Continuous
 62
     7
370
    25
100
AcDbLine
 10
23.2627575269
 20
13.3164968237
 30
0.0
 11
22.8605841942
 21
13.6539603188
 31
0.0
  0
LINE
  5
2A9
330
1B
100
AcDbEntity
 67
     1
  8
0
  6
Continuous
 62
     7
370
    25
100
AcDbLine
 10
24.4692775248
 20
12.3041063384
 30
0.0
 11
24.0671041921
 21
12.6415698335
 31
0.0
  0
LINE
  5
2AA
330
1B
100
AcDbEntity
 67
     1
  8
0
  6
Continuous
 62
     7
370
    25
100
AcDbLine
 10
23.9120233001
 20
12.6901101973
 30
0.0
 11
23.3374899677
 21
13.1722009045
 31
0.0
  0
LINE
  5
2AB
330
1B
100
AcDbEntity
 67
     1
  8
0
  6
Continuous
 62
     7
370
    25
100
AcDbLine
 10
23.1767930653
 20
12.9806897938
 30
0.0
 11
23.1384908432
 21
13.0128291743
 31
0.0
  0
LINE
  5
2AC
330
1B
100
AcDbEntity
 67
     1
  8
0
  6
Continuous
 62
     7
370
    25
100
AcDbLine
 10
23.7896286198
 20
12.466459706
 30
0.0
 11
23.7513263977
 21
12.4985990865
 31
0.0
  0
LINE
  5
2AD
330
1B
100
AcDbEntity
 67
     1
  8
0
  6
Continuous
 62
     7
370
    25
100
AcDbLine
 10
-22.8605841942
 20
13.6539603188
 30
0.0
 11
-23.2627575269
 21
13.3164968237
 31
0.0
  0
LINE
  5
2AE
330
1B
100
AcDbEntity
 67
     1
  8
0
  6
Continuous
 62
     7
370
    25
100
AcDbLine
 10
-24.0671041921
 20
12.6415698335
 30
0.0
 11
-24.4692775248
 21
12.3041063384
 31
0.0
  0
LINE
  5
2AF
330
1B
100
AcDbEntity
 67
     1
  8
0
  6
Continuous
 62
     7
370
    25
100
AcDbLine
 10
-23.3374899677
 20
13.1722009045
 30
0.0
 11
-23.9120233001
 21
12.6901101973
 31
0.0
  0
LINE
  5
2B0
330
1B
100
AcDbEntity
 67
     1
  8
0
  6
Continuous
 62
     7
370
    25
100
AcDbLine
 10
-23.1384908432
 20
13.0128291743
 30
0.0
 11
-23.1767930653
 21
12.9806897938
 31
0.0
  0
LINE
  5
2B1
330
1B
100
AcDbEntity
 67
     1
  8
0
  6
Continuous
 62
     7
370
    25
100
AcDbLine
 10
-23.7513263977
 20
12.4985990865
 30
0.0
 11
-23.7896286198
 21
12.466459706
 31
0.0
  0
LINE
  5
2B2
330
1B
100
AcDbEntity
 67
     1
  8
0
  6
Continuous
 62
     7
370
    25
100
AcDbLine
 10
-23.2627575269
 20
-13.3164968237
 30
0.0
 11
-22.8605841942
 21
-13.6539603188
 31
0.0
  0
LINE
  5
2B3
330
1B
100
AcDbEntity
 67
     1
  8
0
  6
Continuous
 62
     7
370
    25
100
AcDbLine
 10
-24.4692775248
 20
-12.3041063384
 30
0.0
 11
-24.0671041921
 21
-12.6415698335
 31
0.0
  0
LINE
  5
2B4
330
1B
100
AcDbEntity
 67
     1
  8
0
  6
Continuous
 62
     7
370
    25
100
AcDbLine
 10
-23.9120233001
 20
-12.6901101973
 30
0.0
 11
-23.3374899677
 21
-13.1722009045
 31
0.0
  0
LINE
  5
2B5
330
1B
100
AcDbEntity
 67
     1
  8
0
  6
Continuous
 62
     7
370
    25
100
AcDbLine
 10
-23.7896286198
 20
-12.466459706
 30
0.0
 11
-23.7513263977
 21
-12.4985990865
 31
0.0
  0
LINE
  5
2B6
330
1B
100
AcDbEntity
 67
     1
  8
0
  6
Continuous
 62
     7
370
    25
100
AcDbLine
 10
-23.1767930653
 20
-12.9806897938
 30
0.0
 11
-23.1384908432
 21
-13.0128291743
 31
0.0
  0
LINE
  5
2B7
330
1B
100
AcDbEntity
 67
     1
  8
0
  6
Continuous
 62
     7
370
    25
100
AcDbLine
 10
23.6875
 20
2.1875
 30
0.0
 11
0.3125
 21
2.1875
 31
0.0
  0
LINE
  5
2B8
330
1B
100
AcDbEntity
 67
     1
  8
0
  6
Continuous
 62
     7
370
    25
100
AcDbLine
 10
0.3125
 20
2.1875
 30
0.0
 11
0.3125
 21
1.9375
 31
0.0
  0
LINE
  5
2B9
330
1B
100
AcDbEntity
 67
     1
  8
0
  6
Continuous
 62
     7
370
    25
100
AcDbLine
 10
23.6875
 20
2.1875
 30
0.0
 11
23.6875
 21
1.9375
 31
0.0
  0
LINE
  5
2BA
330
1B
100
AcDbEntity
 67
     1
  8
0
  6
Continuous
 62
     7
370
    25
100
AcDbLine
 10
-0.3125
 20
2.1875
 30
0.0
 11
-23.6875
 21
2.1875
 31
0.0
  0
LINE
  5
2BB
330
1B
100
AcDbEntity
 67
     1
  8
0
  6
Continuous
 62
     7
370
    25
100
AcDbLine
 10
-23.6875
 20
2.1875
 30
0.0
 11
-23.6875
 21
1.9375
 31
0.0
  0
LINE
  5
2BC
330
1B
100
AcDbEntity
 67
     1
  8
0
  6
Continuous
 62
     7
370
    25
100
AcDbLine
 10
-0.3125
 20
2.1875
 30
0.0
 11
-0.3125
 21
1.9375
 31
0.0
  0
LINE
  5
2BD
330
1B
100
AcDbEntity
 67
     1
  8
0
  6
Continuous
 62
     7
370
    25
100
AcDbLine
 10
23.6875
 20
-2.1875
 30
0.0
 11
0.3125
 21
-2.1875
 31
0.0
  0
LINE
  5
2BE
330
1B
100
AcDbEntity
 67
     1
  8
0
  6
Continuous
 62
     7
370
    25
100
AcDbLine
 10
0.3125
 20
-1.9375
 30
0.0
 11
0.3125
 21
-2.1875
 31
0.0
  0
LINE
  5
2BF
330
1B
100
AcDbEntity
 67
     1
  8
0
  6
Continuous
 62
     7
370
    25
100
AcDbLine
 10
23.6875
 20
-1.9375
 30
0.0
 11
23.6875
 21
-2.1875
 31
0.0
  0
LINE
  5
2C0
330
1B
100
AcDbEntity
 67
     1
  8
0
  6
Continuous
 62
     7
370
    25
100
AcDbLine
 10
-0.3125
 20
-2.1875
 30
0.0
 11
-23.6875
 21
-2.1875
 31
0.0
  0
LINE
  5
2C1
330
1B
100
AcDbEntity
 67
     1
  8
0
  6
Continuous
 62
     7
370
    25
100
AcDbLine
 10
-23.6875
 20
-1.9375
 30
0.0
 11
-23.6875
 21
-2.1875
 31
0.0
  0
LINE
  5
2C2
330
1B
100
AcDbEntity
 67
     1
  8
0
  6
Continuous
 62
     7
370
    25
100
AcDbLine
 10
-0.3125
 20
-1.9375
 30
0.0
 11
-0.3125
 21
-2.1875
 31
0.0
  0
LINE
  5
2C3
330
1B
100
AcDbEntity
 67
     1
  8
0
  6
Continuous
 62
     7
370
    25
100
AcDbLine
 10
23.2750832101
 20
-13.1756136183
 30
0.0
 11
23.0340060449
 21
-12.8883090406
 31
0.0
  0
LINE
  5
2C4
330
1B
100
AcDbEntity
 67
     1
  8
0
  6
Continuous
 62
     7
370
    25
100
AcDbLine
 10
23.7654220294
 20
-12.4376114149
 30
0.0
 11
23.9262209869
 21
-12.6292441502
 31
0.0
  0
LINE
  5
2C5
330
1B
100
AcDbEntity
 67
     1
  8
0
  6
Continuous
 62
     7
370
    25
100
AcDbLine
 10
23.7289879288
 20
-12.471977136
 30
0.0
 11
23.9120233001
 21
-12.6901101973
 31
0.0
  0
LINE
  5
2C6
330
1B
100
AcDbEntity
 67
     1
  8
0
  6
Continuous
 62
     7
370
    25
100
AcDbLine
 10
23.0840055408
 20
-12.8701099281
 30
0.0
 11
23.3374899677
 21
-13.1722009045
 31
0.0
  0
LINE
  5
2C7
330
1B
100
AcDbEntity
 67
     1
  8
0
  6
Continuous
 62
     7
370
    25
100
AcDbLine
 10
23.7654220294
 20
12.4376114149
 30
0.0
 11
23.9262209869
 21
12.6292441502
 31
0.0
  0
LINE
  5
2C8
330
1B
100
AcDbEntity
 67
     1
  8
0
  6
Continuous
 62
     7
370
    25
100
AcDbLine
 10
23.2750832101
 20
13.1756136183
 30
0.0
 11
23.0340060449
 21
12.8883090406
 31
0.0
  0
LINE
  5
2C9
330
1B
100
AcDbEntity
 67
     1
  8
0
  6
Continuous
 62
     7
370
    25
100
AcDbLine
 10
23.7289879288
 20
12.471977136
 30
0.0
 11
23.9120233001
 21
12.6901101973
 31
0.0
  0
LINE
  5
2CA
330
1B
100
AcDbEntity
 67
     1
  8
0
  6
Continuous
 62
     7
370
    25
100
AcDbLine
 10
23.0840055408
 20
12.8701099281
 30
0.0
 11
23.3374899677
 21
13.1722009045
 31
0.0
  0
LINE
  5
2CB
330
1B
100
AcDbEntity
 67
     1
  8
0
  6
Continuous
 62
     7
370
    25
100
AcDbLine
 10
-23.2750832101
 20
13.1756136183
 30
0.0
 11
-23.0340060449
 21
12.8883090406
 31
0.0
  0
LINE
  5
2CC
330
1B
100
AcDbEntity
 67
     1
  8
0
  6
Continuous
 62
     7
370
    25
100
AcDbLine
 10
-23.7654220294
 20
12.4376114149
 30
0.0
 11
-23.9262209869
 21
12.6292441502
 31
0.0
  0
LINE
  5
2CD
330
1B
100
AcDbEntity
 67
     1
  8
0
  6
Continuous
 62
     7
370
    25
100
AcDbLine
 10
-23.7289879288
 20
12.471977136
 30
0.0
 11
-23.9120233001
 21
12.6901101973
 31
0.0
  0
LINE
  5
2CE
330
1B
100
AcDbEntity
 67
     1
  8
0
  6
Continuous
 62
     7
370
    25
100
AcDbLine
 10
-23.0840055408
 20
12.8701099281
 30
0.0
 11
-23.3374899677
 21
13.1722009045
 31
0.0
  0
LINE
  5
2CF
330
1B
100
AcDbEntity
 67
     1
  8
0
  6
Continuous
 62
     7
370
    25
100
AcDbLine
 10
-23.7654220294
 20
-12.4376114149
 30
0.0
 11
-23.9262209869
 21
-12.6292441502
 31
0.0
  0
LINE
  5
2D0
330
1B
100
AcDbEntity
 67
     1
  8
0
  6
Continuous
 62
     7
370
    25
100
AcDbLine
 10
-23.2750832101
 20
-13.1756136183
 30
0.0
 11
-23.0340060449
 21
-12.8883090406
 31
0.0
  0
LINE
  5
2D1
330
1B
100
AcDbEntity
 67
     1
  8
0
  6
Continuous
 62
     7
370
    25
100
AcDbLine
 10
-23.7289879288
 20
-12.471977136
 30
0.0
 11
-23.9120233001
 21
-12.6901101973
 31
0.0
  0
LINE
  5
2D2
330
1B
100
AcDbEntity
 67
     1
  8
0
  6
Continuous
 62
     7
370
    25
100
AcDbLine
 10
-23.0840055408
 20
-12.8701099281
 30
0.0
 11
-23.3374899677
 21
-13.1722009045
 31
0.0
  0
LINE
  5
2D3
330
1B
100
AcDbEntity
 67
     1
  8
0
  6
Continuous
 62
     7
370
    25
100
AcDbLine
 10
18.875
 20
13.0
 30
0.0
 11
18.875
 21
3.75
 31
0.0
  0
LINE
  5
2D4
330
1B
100
AcDbEntity
 67
     1
  8
0
  6
Continuous
 62
     7
370
    25
100
AcDbLine
 10
-18.875
 20
-3.75
 30
0.0
 11
18.875
 21
-3.75
 31
0.0
  0
LINE
  5
2D5
330
1B
100
AcDbEntity
 67
     1
  8
0
  6
Continuous
 62
     7
370
    25
100
AcDbLine
 10
-18.875
 20
-13.0
 30
0.0
 11
-18.875
 21
-3.75
 31
0.0
  0
LINE
  5
2D6
330
1B
100
AcDbEntity
 67
     1
  8
0
  6
Continuous
 62
     7
370
    25
100
AcDbLine
 10
-18.875
 20
3.75
 30
0.0
 11
-18.875
 21
13.0
 31
0.0
  0
LINE
  5
2D7
330
1B
100
AcDbEntity
 67
     1
  8
0
  6
Continuous
 62
     7
370
    25
100
AcDbLine
 10
18.875
 20
3.75
 30
0.0
 11
-18.875
 21
3.75
 31
0.0
  0
LINE
  5
2D8
330
1B
100
AcDbEntity
 67
     1
  8
0
  6
Continuous
 62
     7
370
    25
100
AcDbLine
 10
22.375
 20
-12.75
 30
0.0
 11
18.875
 21
-12.75
 31
0.0
  0
LINE
  5
2D9
330
1B
100
AcDbEntity
 67
     1
  8
0
  6
Continuous
 62
     7
370
    25
100
AcDbLine
 10
18.875
 20
-3.75
 30
0.0
 11
18.875
 21
-13.0
 31
0.0
  0
LINE
  5
2DA
330
1B
100
AcDbEntity
 67
     1
  8
0
  6
Continuous
 62
     7
370
    25
100
AcDbLine
 10
-22.375
 20
13.0
 30
0.0
 11
-18.875
 21
13.0
 31
0.0
  0
LINE
  5
2DB
330
1B
100
AcDbEntity
 67
     1
  8
0
  6
Continuous
 62
     7
370
    25
100
AcDbLine
 10
-19.625
 20
12.75
 30
0.0
 11
-19.625
 21
13.0
 31
0.0
  0
LINE
  5
2DC
330
1B
100
AcDbEntity
 67
     1
  8
0
  6
Continuous
 62
     7
370
    25
100
AcDbLine
 10
-22.375
 20
12.75
 30
0.0
 11
-18.875
 21
12.75
 31
0.0
  0
LINE
  5
2DD
330
1B
100
AcDbEntity
 67
     1
  8
0
  6
Continuous
 62
     7
370
    25
100
AcDbLine
 10
-24.125
 20
11.0
 30
0.0
 11
-24.125
 21
1.9375
 31
0.0
  0
LINE
  5
2DE
330
1B
100
AcDbEntity
 67
     1
  8
0
  6
Continuous
 62
     7
370
    25
100
AcDbLine
 10
-24.125
 20
-1.9375
 30
0.0
 11
-24.125
 21
-11.0
 31
0.0
  0
LINE
  5
2DF
330
1B
100
AcDbEntity
 67
     1
  8
0
  6
Continuous
 62
     7
370
    25
100
AcDbLine
 10
-22.375
 20
-12.75
 30
0.0
 11
-18.875
 21
-12.75
 31
0.0
  0
LINE
  5
2E0
330
1B
100
AcDbEntity
 67
     1
  8
0
  6
Continuous
 62
     7
370
    25
100
AcDbLine
 10
-19.625
 20
-13.0
 30
0.0
 11
-19.625
 21
-12.75
 31
0.0
  0
LINE
  5
2E1
330
1B
100
AcDbEntity
 67
     1
  8
0
  6
Continuous
 62
     7
370
    25
100
AcDbLine
 10
-22.375
 20
-13.0
 30
0.0
 11
-18.875
 21
-13.0
 31
0.0
  0
LINE
  5
2E2
330
1B
100
AcDbEntity
 67
     1
  8
0
  6
Continuous
 62
     7
370
    25
100
AcDbLine
 10
-24.375
 20
11.0
 30
0.0
 11
-24.375
 21
-11.0
 31
0.0
  0
LINE
  5
2E3
330
1B
100
AcDbEntity
 67
     1
  8
0
  6
Continuous
 62
     7
370
    25
100
AcDbLine
 10
19.625
 20
-12.75
 30
0.0
 11
19.625
 21
-13.0
 31
0.0
  0
LINE
  5
2E4
330
1B
100
AcDbEntity
 67
     1
  8
0
  6
Continuous
 62
     7
370
    25
100
AcDbLine
 10
22.375
 20
-13.0
 30
0.0
 11
18.875
 21
-13.0
 31
0.0
  0
LINE
  5
2E5
330
1B
100
AcDbEntity
 67
     1
  8
0
  6
Continuous
 62
     7
370
    25
100
AcDbLine
 10
24.125
 20
-11.0
 30
0.0
 11
24.125
 21
-1.9375
 31
0.0
  0
LINE
  5
2E6
330
1B
100
AcDbEntity
 67
     1
  8
0
  6
Continuous
 62
     7
370
    25
100
AcDbLine
 10
24.125
 20
1.9375
 30
0.0
 11
24.125
 21
11.0
 31
0.0
  0
LINE
  5
2E7
330
1B
100
AcDbEntity
 67
     1
  8
0
  6
Continuous
 62
     7
370
    25
100
AcDbLine
 10
24.375
 20
11.0
 30
0.0
 11
24.375
 21
-11.0
 31
0.0
  0
LINE
  5
2E8
330
1B
100
AcDbEntity
 67
     1
  8
0
  6
Continuous
 62
     7
370
    25
100
AcDbLine
 10
22.375
 20
13.0
 30
0.0
 11
18.875
 21
13.0
 31
0.0
  0
LINE
  5
2E9
330
1B
100
AcDbEntity
 67
     1
  8
0
  6
Continuous
 62
     7
370
    25
100
AcDbLine
 10
22.375
 20
12.75
 30
0.0
 11
18.875
 21
12.75
 31
0.0
  0
LINE
  5
2EA
330
1B
100
AcDbEntity
 67
     1
  8
0
  6
Continuous
 62
     7
370
    25
100
AcDbLine
 10
24.375
 20
-1.9375
 30
0.0
 11
-24.375
 21
-1.9375
 31
0.0
  0
LINE
  5
2EB
330
1B
100
AcDbEntity
 67
     1
  8
0
  6
Continuous
 62
     7
370
    25
100
AcDbLine
 10
24.375
 20
1.9375
 30
0.0
 11
-24.375
 21
1.9375
 31
0.0
  0
LINE
  5
2EC
330
1B
100
AcDbEntity
 67
     1
  8
0
  6
Continuous
 62
     7
370
    25
100
AcDbLine
 10
22.9310260261
 20
-12.9211546159
 30
0.0
 11
23.2627575269
 21
-13.3164968237
 31
0.0
  0
LINE
  5
2ED
330
1B
100
AcDbEntity
 67
     1
  8
0
  6
Continuous
 62
     7
370
    25
100
AcDbLine
 10
24.0671041921
 20
-12.6415698335
 30
0.0
 11
23.8358561945
 21
-12.3659792015
 31
0.0
  0
LINE
  5
2EE
330
1B
100
AcDbEntity
 67
     1
  8
0
  6
Continuous
 62
     7
370
    25
100
AcDbLine
 10
22.9310260261
 20
12.9211546159
 30
0.0
 11
23.2627575269
 21
13.3164968237
 31
0.0
  0
LINE
  5
2EF
330
1B
100
AcDbEntity
 67
     1
  8
0
  6
Continuous
 62
     7
370
    25
100
AcDbLine
 10
24.0671041921
 20
12.6415698335
 30
0.0
 11
23.8358561945
 21
12.3659792015
 31
0.0
  0
LINE
  5
2F0
330
1B
100
AcDbEntity
 67
     1
  8
0
  6
Continuous
 62
     7
370
    25
100
AcDbLine
 10
-22.9310260261
 20
12.9211546159
 30
0.0
 11
-23.2627575269
 21
13.3164968237
 31
0.0
  0
LINE
  5
2F1
330
1B
100
AcDbEntity
 67
     1
  8
0
  6
Continuous
 62
     7
370
    25
100
AcDbLine
 10
-24.0671041921
 20
12.6415698335
 30
0.0
 11
-23.8358561945
 21
12.3659792015
 31
0.0
  0
LINE
  5
2F2
330
1B
100
AcDbEntity
 67
     1
  8
0
  6
Continuous
 62
     7
370
    25
100
AcDbLine
 10
-22.9310260261
 20
-12.9211546159
 30
0.0
 11
-23.2627575269
 21
-13.3164968237
 31
0.0
  0
LINE
  5
2F3
330
1B
100
AcDbEntity
 67
     1
  8
0
  6
Continuous
 62
     7
370
    25
100
AcDbLine
 10
-24.0671041921
 20
-12.6415698335
 30
0.0
 11
-23.8358561945
 21
-12.3659792015
 31
0.0
  0
ARC
  5
2F4
330
1B
100
AcDbEntity
 67
     1
  8
0
  6
Continuous
 62
     7
370
    25
100
AcDbCircle
 10
23.1984787659
 20
-13.2398923794
 30
0.0
 40
0.1000000000000039
100
AcDbArc
 50
310.0
 51
40.0
  0
ARC
  5
2F5
330
1B
100
AcDbEntity
 67
     1
  8
0
  6
Continuous
 62
     7
370
    25
100
AcDbCircle
 10
24.0028254312
 20
-12.5649653892
 30
0.0
 40
0.1000000000000039
100
AcDbArc
 50
220.0
 51
310.0
  0
ARC
  5
2F6
330
1B
100
AcDbEntity
 67
     1
  8
0
  6
Continuous
 62
     7
370
    25
100
AcDbCircle
 10
24.0028254312
 20
12.5649653892
 30
0.0
 40
0.1000000000000066
100
AcDbArc
 50
50.0
 51
140.0
  0
ARC
  5
2F7
330
1B
100
AcDbEntity
 67
     1
  8
0
  6
Continuous
 62
     7
370
    25
100
AcDbCircle
 10
23.1984787659
 20
13.2398923794
 30
0.0
 40
0.1000000000000039
100
AcDbArc
 50
320.0
 51
50.0
  0
ARC
  5
2F8
330
1B
100
AcDbEntity
 67
     1
  8
0
  6
Continuous
 62
     7
370
    25
100
AcDbCircle
 10
-23.1984787659
 20
13.2398923794
 30
0.0
 40
0.1000000000000039
100
AcDbArc
 50
130.0
 51
220.0
  0
ARC
  5
2F9
330
1B
100
AcDbEntity
 67
     1
  8
0
  6
Continuous
 62
     7
370
    25
100
AcDbCircle
 10
-24.0028254312
 20
12.5649653892
 30
0.0
 40
0.1000000000000039
100
AcDbArc
 50
40.0
 51
130.0
  0
ARC
  5
2FA
330
1B
100
AcDbEntity
 67
     1
  8
0
  6
Continuous
 62
     7
370
    25
100
AcDbCircle
 10
-24.0028254312
 20
-12.5649653892
 30
0.0
 40
0.1000000000000066
100
AcDbArc
 50
230.0
 51
320.0
  0
ARC
  5
2FB
330
1B
100
AcDbEntity
 67
     1
  8
0
  6
Continuous
 62
     7
370
    25
100
AcDbCircle
 10
-23.1984787659
 20
-13.2398923794
 30
0.0
 40
0.1000000000000039
100
AcDbArc
 50
140.0
 51
230.0
  0
ARC
  5
2FC
330
1B
100
AcDbEntity
 67
     1
  8
0
  6
Continuous
 62
     7
370
    25
100
AcDbCircle
 10
-22.375
 20
11.0
 30
0.0
 40
1.750000000000014
100
AcDbArc
 50
90.0
 51
180.0
  0
ARC
  5
2FD
330
1B
100
AcDbEntity
 67
     1
  8
0
  6
Continuous
 62
     7
370
    25
100
AcDbCircle
 10
-22.375
 20
-11.0
 30
0.0
 40
1.750000000000014
100
AcDbArc
 50
180.0
 51
270.0
  0
ARC
  5
2FE
330
1B
100
AcDbEntity
 67
     1
  8
0
  6
Continuous
 62
     7
370
    25
100
AcDbCircle
 10
-22.375
 20
-11.0
 30
0.0
 40
1.999999999999986
100
AcDbArc
 50
180.0
 51
270.0
  0
ARC
  5
2FF
330
1B
100
AcDbEntity
 67
     1
  8
0
  6
Continuous
 62
     7
370
    25
100
AcDbCircle
 10
-22.375
 20
11.0
 30
0.0
 40
2.000000000000014
100
AcDbArc
 50
90.0
 51
180.0
  0
ARC
  5
300
330
1B
100
AcDbEntity
 67
     1
  8
0
  6
Continuous
 62
     7
370
    25
100
AcDbCircle
 10
22.375
 20
11.0
 30
0.0
 40
1.750000000000018
100
AcDbArc
 50
0.0
 51
90.0
  0
ARC
  5
301
330
1B
100
AcDbEntity
 67
     1
  8
0
  6
Continuous
 62
     7
370
    25
100
AcDbCircle
 10
22.375
 20
-11.0
 30
0.0
 40
1.999999999999989
100
AcDbArc
 50
270.0
 51
0.0
  0
ARC
  5
302
330
1B
100
AcDbEntity
 67
     1
  8
0
  6
Continuous
 62
     7
370
    25
100
AcDbCircle
 10
22.375
 20
-11.0
 30
0.0
 40
1.750000000000004
100
AcDbArc
 50
270.0
 51
0.0
  0
ARC
  5
303
330
1B
100
AcDbEntity
 67
     1
  8
0
  6
Continuous
 62
     7
370
    25
100
AcDbCircle
 10
22.375
 20
11.0
 30
0.0
 40
1.999999999999989
100
AcDbArc
 50
0.0
 51
90.0
  0
VIEWPORT
  5
3BB
330
1B
100
AcDbEntity
 67
     1
  8
0
100
AcDbViewport
 10
0.0
 20
0.0
 30
0.0
 40
8.4
 41
6.4
 68
     1
 69
     1
 12
0.0
 22
26.7202816478
 13
0.0
 23
0.0
 14
0.5
 24
0.5
 15
0.5
 25
0.5
 16
0.0
 26
0.0
 36
1.0
 17
0.0
 27
0.0
 37
0.0
 42
50.0
 43
0.0
 44
0.0
 45
68.7902654385
 50
0.0
 51
0.0
 72
   100
 90
   557152
  1

281
     0
 71
     1
 74
     0
110
0.0
120
0.0
130
0.0
111
1.0
121
0.0
131
0.0
112
0.0
122
1.0
132
0.0
 79
     0
146
0.0
  0
ENDSEC
  0
SECTION
  2
OBJECTS
  0
DICTIONARY
  5
C
330
0
100
AcDbDictionary
281
     1
  3
ACAD_GROUP
350
D
  3
ACAD_LAYOUT
350
1A
  3
ACAD_MLINESTYLE
350
17
  3
ACAD_PLOTSETTINGS
350
19
  3
ACAD_PLOTSTYLENAME
350
E
  3
ACAD_SCALELIST
350
47
  3
DWGPROPS
350
3BF
  0
DICTIONARY
  5
D
102
{ACAD_REACTORS
330
C
102
}
330
C
100
AcDbDictionary
281
     1
  0
DICTIONARY
  5
1A
102
{ACAD_REACTORS
330
C
102
}
330
C
100
AcDbDictionary
281
     1
  3
_Right
350
26
  3
_Top
350
1E
  3
Model
350
22
  0
DICTIONARY
  5
17
102
{ACAD_REACTORS
330
C
102
}
330
C
100
AcDbDictionary
281
     1
  3
Standard
350
18
  0
DICTIONARY
  5
19
102
{ACAD_REACTORS
330
C
102
}
330
C
100
AcDbDictionary
281
     1
  0
ACDBDICTIONARYWDFLT
  5
E
102
{ACAD_REACTORS
330
C
102
}
330
C
100
AcDbDictionary
281
     1
  3
Normal
350
F
100
AcDbDictionaryWithDefault
340
F
  0
DICTIONARY
  5
47
102
{ACAD_REACTORS
330
C
102
}
330
C
100
AcDbDictionary
281
     1
  3
A0
350
48
  3
A1
350
49
  3
A2
350
4A
  3
A3
350
4B
  3
A4
350
4C
  3
A5
350
4D
  3
A6
350
4E
  3
A7
350
4F
  3
A8
350
50
  3
A9
350
51
  3
B1
350
52
  3
B2
350
53
  3
B3
350
54
  3
B4
350
55
  3
B5
350
56
  3
B6
350
57
  3
B7
350
58
  0
XRECORD
  5
3BF
102
{ACAD_REACTORS
330
C
102
}
330
C
100
AcDbXrecord
280
     1
  1
DWGPROPS COOKIE
  2

  3

  4

  6

  7

  8
kshultis
  9

300
=
301
=
302
=
303
=
304
=
305
=
306
=
307
=
308
=
309
=
 40
0.0
 41
2459867.829127454
 42
2459867.829156632
  1

 90
        0
  0
LAYOUT
  5
26
102
{ACAD_REACTORS
330
1A
102
}
330
1A
100
AcDbPlotSettings
  1

  2
none_device
  4
Letter_(8.50_x_11.00_Inches)
  6

 40
6.35
 41
6.35
 42
6.35001
 43
6.35001
 44
215.9
 45
279.4
 46
0.0
 47
0.0
 48
0.0
 49
0.0
140
0.0
141
0.0
142
1.0
143
4.6626608969
 70
   688
 72
     0
 73
     1
 74
     1
  7

 75
     0
147
0.2144698107
148
621.7658072929
149
347.0200919554
100
AcDbLayout
  1
_Right
 70
     1
 71
     2
 10
0.0
 20
0.0
 11
0.0
 21
0.0
 12
0.0
 22
0.0
 32
0.0
 14
0.0
 24
0.0
 34
0.0
 15
0.0
 25
0.0
 35
0.0
146
0.0
 13
0.0
 23
0.0
 33
0.0
 16
1.0
 26
0.0
 36
0.0
 17
0.0
 27
1.0
 37
0.0
 76
     0
330
23
331
3BD
  0
LAYOUT
  5
1E
102
{ACAD_REACTORS
330
1A
102
}
330
1A
100
AcDbPlotSettings
  1

  2
none_device
  4
Letter_(8.50_x_11.00_Inches)
  6

 40
6.35
 41
6.35
 42
6.35001
 43
6.35001
 44
215.9
 45
279.4
 46
0.0
 47
0.0
 48
0.0
 49
0.0
140
0.0
141
0.0
142
1.0
143
4.6626608969
 70
   688
 72
     0
 73
     1
 74
     1
  7

 75
     0
147
0.2144698107
148
621.7658072929
149
347.0200919554
100
AcDbLayout
  1
_Top
 70
     1
 71
     1
 10
-25.644635851
 20
-14.8278735689
 11
25.6446340153
 21
24.804744055
 12
0.0
 22
0.0
 32
0.0
 14
-24.4789687911
 24
-13.6622083447
 34
0.0
 15
24.4789687911
 25
13.6622083447
 35
0.0
146
0.0
 13
0.0
 23
0.0
 33
0.0
 16
1.0
 26
0.0
 36
0.0
 17
0.0
 27
1.0
 37
0.0
 76
     0
330
1B
331
3BB
  0
LAYOUT
  5
22
102
{ACAD_REACTORS
330
1A
102
}
330
1A
100
AcDbPlotSettings
  1

  2
none_device
  4
ANSI_A_(11.00_x_8.50_Inches)
  6

 40
6.35
 41
19.05
 42
6.35000508
 43
19.05000254
 44
279.4
 45
215.9
 46
133.34999746
 47
4.2158638901
 48
0.0
 49
0.0
140
0.0
141
0.0
142
0.1247749219
143
1.0
 70
  1696
 72
     0
 73
     0
 74
     0
  7

 75
     0
147
0.5913241897
148
-39.4088153714
149
0.0
100
AcDbLayout
  1
Model
 70
     1
 71
     0
 10
0.0
 20
0.0
 11
12.0
 21
9.0
 12
0.0
 22
0.0
 32
0.0
 14
-24.4786176137
 24
-7.0004367044
 34
0.0
 15
24.4786176137
 25
60.441
 35
0.0
146
0.0
 13
0.0
 23
0.0
 33
0.0
 16
1.0
 26
0.0
 36
0.0
 17
0.0
 27
1.0
 37
0.0
 76
     0
330
1F
331
29
  0
MLINESTYLE
  5
18
102
{ACAD_REACTORS
330
17
102
}
330
17
100
AcDbMlineStyle
  2
Standard
 70
     0
  3

 62
   256
 51
90.0
 52
90.0
 71
     2
 49
0.5
 62
   256
  6
BYLAYER
 49
-0.5
 62
   256
  6
BYLAYER
  0
ACDBPLACEHOLDER
  5
F
102
{ACAD_REACTORS
330
E
102
}
330
E
  0
SCALE
  5
48
102
{ACAD_REACTORS
330
47
102
}
330
47
100
AcDbScale
 70
     0
300
1:1
140
1.0
141
1.0
290
     1
  0
SCALE
  5
49
102
{ACAD_REACTORS
330
47
102
}
330
47
100
AcDbScale
 70
     0
300
1/128" = 1'-0"
140
0.0078125
141
12.0
290
     0
  0
SCALE
  5
4A
102
{ACAD_REACTORS
330
47
102
}
330
47
100
AcDbScale
 70
     0
300
1/64" = 1'-0"
140
0.015625
141
12.0
290
     0
  0
SCALE
  5
4B
102
{ACAD_REACTORS
330
47
102
}
330
47
100
AcDbScale
 70
     0
300
1/32" = 1'-0"
140
0.03125
141
12.0
290
     0
  0
SCALE
  5
4C
102
{ACAD_REACTORS
330
47
102
}
330
47
100
AcDbScale
 70
     0
300
1/16" = 1'-0"
140
0.0625
141
12.0
290
     0
  0
SCALE
  5
4D
102
{ACAD_REACTORS
330
47
102
}
330
47
100
AcDbScale
 70
     0
300
3/32" = 1'-0"
140
0.09375
141
12.0
290
     0
  0
SCALE
  5
4E
102
{ACAD_REACTORS
330
47
102
}
330
47
100
AcDbScale
 70
     0
300
1/8" = 1'-0"
140
0.125
141
12.0
290
     0
  0
SCALE
  5
4F
102
{ACAD_REACTORS
330
47
102
}
330
47
100
AcDbScale
 70
     0
300
3/16" = 1'-0"
140
0.1875
141
12.0
290
     0
  0
SCALE
  5
50
102
{ACAD_REACTORS
330
47
102
}
330
47
100
AcDbScale
 70
     0
300
1/4" = 1'-0"
140
0.25
141
12.0
290
     0
  0
SCALE
  5
51
102
{ACAD_REACTORS
330
47
102
}
330
47
100
AcDbScale
 70
     0
300
3/8" = 1'-0"
140
0.375
141
12.0
290
     0
  0
SCALE
  5
52
102
{ACAD_REACTORS
330
47
102
}
330
47
100
AcDbScale
 70
     0
300
1/2" = 1'-0"
140
0.5
141
12.0
290
     0
  0
SCALE
  5
53
102
{ACAD_REACTORS
330
47
102
}
330
47
100
AcDbScale
 70
     0
300
3/4" = 1'-0"
140
0.75
141
12.0
290
     0
  0
SCALE
  5
54
102
{ACAD_REACTORS
330
47
102
}
330
47
100
AcDbScale
 70
     0
300
1" = 1'-0"
140
1.0
141
12.0
290
     0
  0
SCALE
  5
55
102
{ACAD_REACTORS
330
47
102
}
330
47
100
AcDbScale
 70
     0
300
1-1/2" = 1'-0"
140
1.5
141
12.0
290
     0
  0
SCALE
  5
56
102
{ACAD_REACTORS
330
47
102
}
330
47
100
AcDbScale
 70
     0
300
3" = 1'-0"
140
3.0
141
12.0
290
     0
  0
SCALE
  5
57
102
{ACAD_REACTORS
330
47
102
}
330
47
100
AcDbScale
 70
     0
300
6" = 1'-0"
140
6.0
141
12.0
290
     0
  0
SCALE
  5
58
102
{ACAD_REACTORS
330
47
102
}
330
47
100
AcDbScale
 70
     0
300
1'-0" = 1'-0"
140
12.0
141
12.0
290
     0
  0
ENDSEC
  0
EOF
