  0
SECTION
  2
HEADER
  9
$ACADVER
  1
AC1015
  9
$ACADMAINTVER
 70
     6
  9
$DWGCODEPAGE
  3
ANSI_1252
  9
$INSBASE
 10
0.0
 20
0.0
 30
0.0
  9
$EXTMIN
 10
-48.4786176137
 20
-7.0004367044
 30
0.0
  9
$EXTMAX
 10
48.4786176137
 20
36.441
 30
0.0
  9
$LIMMIN
 10
0.0
 20
0.0
  9
$LIMMAX
 10
12.0
 20
9.0
  9
$ORTHOMODE
 70
     0
  9
$REGENMODE
 70
     1
  9
$FILLMODE
 70
     1
  9
$QTEXTMODE
 70
     0
  9
$MIRRTEXT
 70
     1
  9
$LTSCALE
 40
1.0
  9
$ATTMODE
 70
     1
  9
$TEXTSIZE
 40
0.1377952756
  9
$TRACEWID
 40
0.05
  9
$TEXTSTYLE
  7
Standard
  9
$CLAYER
  8
0
  9
$CELTYPE
  6
ByLayer
  9
$CECOLOR
 62
   256
  9
$CELTSCALE
 40
1.0
  9
$DISPSILH
 70
     0
  9
$DIMSCALE
 40
1.0
  9
$DIMASZ
 40
0.156
  9
$DIMEXO
 40
0.0
  9
$DIMDLI
 40
0.38
  9
$DIMRND
 40
0.0
  9
$DIMDLE
 40
0.0
  9
$DIMEXE
 40
0.125
  9
$DIMTP
 40
0.0
  9
$DIMTM
 40
0.0
  9
$DIMTXT
 40
0.1377952756
  9
$DIMCEN
 40
0.09
  9
$DIMTSZ
 40
0.0
  9
$DIMTOL
 70
     0
  9
$DIMLIM
 70
     0
  9
$DIMTIH
 70
     1
  9
$DIMTOH
 70
     1
  9
$DIMSE1
 70
     0
  9
$DIMSE2
 70
     0
  9
$DIMTAD
 70
     0
  9
$DIMZIN
 70
     0
  9
$DIMBLK
  1

  9
$DIMASO
 70
     1
  9
$DIMSHO
 70
     1
  9
$DIMPOST
  1

  9
$DIMAPOST
  1

  9
$DIMALT
 70
     0
  9
$DIMALTD
 70
     2
  9
$DIMALTF
 40
25.4
  9
$DIMLFAC
 40
1.0
  9
$DIMTOFL
 70
     0
  9
$DIMTVP
 40
0.0
  9
$DIMTIX
 70
     0
  9
$DIMSOXD
 70
     0
  9
$DIMSAH
 70
     0
  9
$DIMBLK1
  1

  9
$DIMBLK2
  1

  9
$DIMSTYLE
  2
Standard
  9
$DIMCLRD
 70
     0
  9
$DIMCLRE
 70
     0
  9
$DIMCLRT
 70
     0
  9
$DIMTFAC
 40
1.0
  9
$DIMGAP
 40
0.06
  9
$DIMJUST
 70
     0
  9
$DIMSD1
 70
     0
  9
$DIMSD2
 70
     0
  9
$DIMTOLJ
 70
     1
  9
$DIMTZIN
 70
     0
  9
$DIMALTZ
 70
     0
  9
$DIMALTTZ
 70
     0
  9
$DIMUPT
 70
     0
  9
$DIMDEC
 70
     3
  9
$DIMTDEC
 70
     3
  9
$DIMALTU
 70
     2
  9
$DIMALTTD
 70
     2
  9
$DIMTXSTY
  7
Standard
  9
$DIMAUNIT
 70
     0
  9
$DIMADEC
 70
     2
  9
$DIMALTRND
 40
0.0
  9
$DIMAZIN
 70
     0
  9
$DIMDSEP
 70
    46
  9
$DIMATFIT
 70
     3
  9
$DIMFRAC
 70
     0
  9
$DIMLDRBLK
  1

  9
$DIMLUNIT
 70
     2
  9
$DIMLWD
 70
    -2
  9
$DIMLWE
 70
    -2
  9
$DIMTMOVE
 70
     0
  9
$LUNITS
 70
     2
  9
$LUPREC
 70
     2
  9
$SKETCHINC
 40
0.1
  9
$FILLETRAD
 40
0.0
  9
$AUNITS
 70
     0
  9
$AUPREC
 70
     4
  9
$MENU
  1
.
  9
$ELEVATION
 40
0.0
  9
$PELEVATION
 40
0.0
  9
$THICKNESS
 40
0.0
  9
$LIMCHECK
 70
     0
  9
$CHAMFERA
 40
0.0
  9
$CHAMFERB
 40
0.0
  9
$CHAMFERC
 40
0.0
  9
$CHAMFERD
 40
0.0
  9
$SKPOLY
 70
     0
  9
$TDCREATE
 40
2459867.660281551
  9
$TDUCREATE
 40
2459867.826948218
  9
$TDUPDATE
 40
2459867.660310637
  9
$TDUUPDATE
 40
2459867.826977303
  9
$TDINDWG
 40
0.0000000116
  9
$TDUSRTIMER
 40
0.0000000116
  9
$USRTIMER
 70
     1
  9
$ANGBASE
 50
0.0
  9
$ANGDIR
 70
     0
  9
$PDMODE
 70
     0
  9
$PDSIZE
 40
-1.0
  9
$PLINEWID
 40
0.0
  9
$SPLFRAME
 70
     0
  9
$SPLINETYPE
 70
     6
  9
$SPLINESEGS
 70
     8
  9
$HANDSEED
  5
420
  9
$SURFTAB1
 70
     6
  9
$SURFTAB2
 70
     6
  9
$SURFTYPE
 70
     6
  9
$SURFU
 70
     6
  9
$SURFV
 70
     6
  9
$UCSBASE
  2

  9
$UCSNAME
  2

  9
$UCSORG
 10
0.0
 20
0.0
 30
0.0
  9
$UCSXDIR
 10
1.0
 20
0.0
 30
0.0
  9
$UCSYDIR
 10
0.0
 20
1.0
 30
0.0
  9
$UCSORTHOREF
  2

  9
$UCSORTHOVIEW
 70
     0
  9
$UCSORGTOP
 10
0.0
 20
0.0
 30
0.0
  9
$UCSORGBOTTOM
 10
0.0
 20
0.0
 30
0.0
  9
$UCSORGLEFT
 10
0.0
 20
0.0
 30
0.0
  9
$UCSORGRIGHT
 10
0.0
 20
0.0
 30
0.0
  9
$UCSORGFRONT
 10
0.0
 20
0.0
 30
0.0
  9
$UCSORGBACK
 10
0.0
 20
0.0
 30
0.0
  9
$PUCSBASE
  2

  9
$PUCSNAME
  2

  9
$PUCSORG
 10
0.0
 20
0.0
 30
0.0
  9
$PUCSXDIR
 10
1.0
 20
0.0
 30
0.0
  9
$PUCSYDIR
 10
0.0
 20
1.0
 30
0.0
  9
$PUCSORTHOREF
  2

  9
$PUCSORTHOVIEW
 70
     0
  9
$PUCSORGTOP
 10
0.0
 20
0.0
 30
0.0
  9
$PUCSORGBOTTOM
 10
0.0
 20
0.0
 30
0.0
  9
$PUCSORGLEFT
 10
0.0
 20
0.0
 30
0.0
  9
$PUCSORGRIGHT
 10
0.0
 20
0.0
 30
0.0
  9
$PUCSORGFRONT
 10
0.0
 20
0.0
 30
0.0
  9
$PUCSORGBACK
 10
0.0
 20
0.0
 30
0.0
  9
$USERI1
 70
     0
  9
$USERI2
 70
     0
  9
$USERI3
 70
     0
  9
$USERI4
 70
     0
  9
$USERI5
 70
     0
  9
$USERR1
 40
0.0
  9
$USERR2
 40
0.0
  9
$USERR3
 40
0.0
  9
$USERR4
 40
0.0
  9
$USERR5
 40
0.0
  9
$WORLDVIEW
 70
     1
  9
$SHADEDGE
 70
     3
  9
$SHADEDIF
 70
    70
  9
$TILEMODE
 70
     1
  9
$MAXACTVP
 70
    64
  9
$PINSBASE
 10
0.0
 20
0.0
 30
0.0
  9
$PLIMCHECK
 70
     0
  9
$PEXTMIN
 10
-48.4789687911
 20
-13.6622083447
 30
0.0
  9
$PEXTMAX
 10
48.4789687911
 20
13.6622083447
 30
0.0
  9
$PLIMMIN
 10
-50.7874948365
 20
-15.9707307546
  9
$PLIMMAX
 10
50.787491201
 20
62.5190311834
  9
$UNITMODE
 70
     0
  9
$VISRETAIN
 70
     1
  9
$PLINEGEN
 70
     0
  9
$PSLTSCALE
 70
     1
  9
$TREEDEPTH
 70
  3020
  9
$CMLSTYLE
  2
Standard
  9
$CMLJUST
 70
     0
  9
$CMLSCALE
 40
1.0
  9
$PROXYGRAPHICS
 70
     1
  9
$MEASUREMENT
 70
     0
  9
$CELWEIGHT
370
    -1
  9
$ENDCAPS
280
     0
  9
$JOINSTYLE
280
     0
  9
$LWDISPLAY
290
     1
  9
$INSUNITS
 70
     1
  9
$HYPERLINKBASE
  1

  9
$STYLESHEET
  1

  9
$XEDIT
290
     1
  9
$CEPSNTYPE
380
     0
  9
$PSTYLEMODE
290
     1
  9
$FINGERPRINTGUID
  2
{b7ea5bbe-c2a4-4646-93d5-0dce0050b7e9}
  9
$VERSIONGUID
  2
{FAEB1C32-E019-11D5-929B-00C0DF256EC4}
  9
$EXTNAMES
290
     1
  9
$PSVPSCALE
 40
0.0
  9
$OLESTARTUP
290
     0
  0
ENDSEC
  0
SECTION
  2
CLASSES
  0
CLASS
  1
ACDBDICTIONARYWDFLT
  2
AcDbDictionaryWithDefault
  3
ObjectDBX Classes
 90
        0
280
     0
281
     0
  0
CLASS
  1
VISUALSTYLE
  2
AcDbVisualStyle
  3
ObjectDBX Classes
 90
     4095
280
     0
281
     0
  0
CLASS
  1
MATERIAL
  2
AcDbMaterial
  3
ObjectDBX Classes
 90
     1153
280
     0
281
     0
  0
CLASS
  1
SCALE
  2
AcDbScale
  3
ObjectDBX Classes
 90
     1153
280
     0
281
     0
  0
CLASS
  1
TABLESTYLE
  2
AcDbTableStyle
  3
ObjectDBX Classes
 90
     4095
280
     0
281
     0
  0
CLASS
  1
MLEADERSTYLE
  2
AcDbMLeaderStyle
  3
ACDB_MLEADERSTYLE_CLASS
 90
     4095
280
     0
281
     0
  0
CLASS
  1
SUN
  2
AcDbSun
  3
SCENEOE
 90
     1153
280
     0
281
     0
  0
CLASS
  1
ACDBPLACEHOLDER
  2
AcDbPlaceHolder
  3
ObjectDBX Classes
 90
        0
280
     0
281
     0
  0
CLASS
  1
LAYOUT
  2
AcDbLayout
  3
ObjectDBX Classes
 90
        0
280
     0
281
     0
  0
ENDSEC
  0
SECTION
  2
TABLES
  0
TABLE
  2
VPORT
  5
8
330
0
100
AcDbSymbolTable
 70
     1
  0
VPORT
  5
29
330
8
100
AcDbSymbolTableRecord
100
AcDbViewportTableRecord
  2
*Active
 70
     0
 10
0.0
 20
0.0
 11
1.0
 21
1.0
 12
0.0
 22
14.7202816478
 13
0.0
 23
0.0
 14
0.5
 24
0.5
 15
0.5
 25
0.5
 16
0.0
 26
0.0
 36
1.0
 17
0.0
 27
0.0
 37
0.0
 40
44.3102654385
 41
2.2319067366
 42
50.0
 43
0.0
 44
0.0
 50
0.0
 51
0.0
 71
     0
 72
   100
 73
     1
 74
     3
 75
     0
 76
     0
 77
     0
 78
     0
281
     0
 65
     1
110
0.0
120
0.0
130
0.0
111
1.0
121
0.0
131
0.0
112
0.0
122
1.0
132
0.0
 79
     0
146
0.0
  0
ENDTAB
  0
TABLE
  2
LTYPE
  5
5
330
0
100
AcDbSymbolTable
 70
     6
  0
LTYPE
  5
14
330
5
100
AcDbSymbolTableRecord
100
AcDbLinetypeTableRecord
  2
ByBlock
 70
     0
  3

 72
    65
 73
     0
 40
0.0
  0
LTYPE
  5
15
330
5
100
AcDbSymbolTableRecord
100
AcDbLinetypeTableRecord
  2
ByLayer
 70
     0
  3

 72
    65
 73
     0
 40
0.0
  0
LTYPE
  5
16
330
5
100
AcDbSymbolTableRecord
100
AcDbLinetypeTableRecord
  2
Continuous
 70
     0
  3
Solid line
 72
    65
 73
     0
 40
0.0
  0
LTYPE
  5
5E
330
5
100
AcDbSymbolTableRecord
100
AcDbLinetypeTableRecord
  2
HIDDEN
 70
     0
  3
Hidden __ __ __ __ __ __ __ __ __ __ __ __ __ __
 72
    65
 73
     2
 40
0.075
 49
0.05
 74
     0
 49
-0.025
 74
     0
  0
LTYPE
  5
5F
330
5
100
AcDbSymbolTableRecord
100
AcDbLinetypeTableRecord
  2
PHANTOM
 70
     0
  3
Phantom ______  __  __  ______  __  __  ______
 72
    65
 73
     6
 40
0.5
 49
0.25
 74
     0
 49
-0.05
 74
     0
 49
0.05
 74
     0
 49
-0.05
 74
     0
 49
0.05
 74
     0
 49
-0.05
 74
     0
  0
LTYPE
  5
60
330
5
100
AcDbSymbolTableRecord
100
AcDbLinetypeTableRecord
  2
CENTER
 70
     0
  3
Center ____ _ ____ _ ____ _ ____ _ ____ _ ____
 72
    65
 73
     4
 40
0.4
 49
0.25
 74
     0
 49
-0.05
 74
     0
 49
0.05
 74
     0
 49
-0.05
 74
     0
  0
LTYPE
  5
61
330
5
100
AcDbSymbolTableRecord
100
AcDbLinetypeTableRecord
  2
CENTERX2
 70
     0
  3
Center (2x) ________  __  ________  __  _____
 72
    65
 73
     4
 40
0.8
 49
0.5
 74
     0
 49
-0.1
 74
     0
 49
0.1
 74
     0
 49
-0.1
 74
     0
  0
LTYPE
  5
62
330
5
100
AcDbSymbolTableRecord
100
AcDbLinetypeTableRecord
  2
DOT2
 70
     0
  3
Dot (.5x) ........................................
 72
    65
 73
     2
 40
0.025
 49
0.0
 74
     0
 49
-0.025
 74
     0
  0
ENDTAB
  0
TABLE
  2
LAYER
  5
2
330
0
100
AcDbSymbolTable
 70
     1
  0
LAYER
  5
10
330
2
100
AcDbSymbolTableRecord
100
AcDbLayerTableRecord
  2
0
 70
     0
 62
     7
  6
Continuous
370
    -3
390
F
  0
ENDTAB
  0
TABLE
  2
STYLE
  5
3
330
0
100
AcDbSymbolTable
 70
     1
  0
STYLE
  5
11
330
3
100
AcDbSymbolTableRecord
100
AcDbTextStyleTableRecord
  2
Standard
 70
     0
 40
0.0
 41
1.0
 50
0.0
 71
     0
 42
0.1377952756
  3
txt
  4

  0
ENDTAB
  0
TABLE
  2
VIEW
  5
6
330
0
100
AcDbSymbolTable
 70
     0
  0
ENDTAB
  0
TABLE
  2
UCS
  5
7
330
0
100
AcDbSymbolTable
 70
     0
  0
ENDTAB
  0
TABLE
  2
APPID
  5
9
330
0
100
AcDbSymbolTable
 70
     1
  0
APPID
  5
12
330
9
100
AcDbSymbolTableRecord
100
AcDbRegAppTableRecord
  2
ACAD
 70
     0
  0
ENDTAB
  0
TABLE
  2
DIMSTYLE
  5
A
330
0
100
AcDbSymbolTable
 70
     1
100
AcDbDimStyleTable
  0
DIMSTYLE
105
27
330
A
100
AcDbSymbolTableRecord
100
AcDbDimStyleTableRecord
  2
Standard
 70
     0
178
     0
340
11
  0
ENDTAB
  0
TABLE
  2
BLOCK_RECORD
  5
1
330
0
100
AcDbSymbolTable
 70
     1
  0
BLOCK_RECORD
  5
1F
330
1
100
AcDbSymbolTableRecord
100
AcDbBlockTableRecord
  2
*Model_Space
340
22
  0
BLOCK_RECORD
  5
1B
330
1
100
AcDbSymbolTableRecord
100
AcDbBlockTableRecord
  2
*Paper_Space
340
1E
  0
BLOCK_RECORD
  5
23
330
1
100
AcDbSymbolTableRecord
100
AcDbBlockTableRecord
  2
*Paper_Space0
340
26
  0
ENDTAB
  0
ENDSEC
  0
SECTION
  2
BLOCKS
  0
BLOCK
  5
20
330
1F
100
AcDbEntity
  8
0
100
AcDbBlockBegin
  2
*Model_Space
 70
     0
 10
0.0
 20
0.0
 30
0.0
  3
*Model_Space
  1

  0
ENDBLK
  5
21
330
1F
100
AcDbEntity
  8
0
100
AcDbBlockEnd
  0
BLOCK
  5
1C
330
1B
100
AcDbEntity
 67
     1
  8
0
100
AcDbBlockBegin
  2
*Paper_Space
 70
     0
 10
0.0
 20
0.0
 30
0.0
  3
*Paper_Space
  1

  0
ENDBLK
  5
1D
330
1B
100
AcDbEntity
 67
     1
  8
0
100
AcDbBlockEnd
  0
BLOCK
  5
24
330
23
100
AcDbEntity
  8
0
100
AcDbBlockBegin
  2
*Paper_Space0
 70
     0
 10
0.0
 20
0.0
 30
0.0
  3
*Paper_Space0
  1

  0
SPLINE
  5
37C
330
23
100
AcDbEntity
  8
0
  6
Continuous
 62
     7
370
    25
100
AcDbSpline
210
0.0
220
0.0
230
1.0
 70
     8
 71
     3
 72
    31
 73
    27
 74
     0
 42
0.00000001
 43
0.00000001
 40
0.0
 40
0.0
 40
0.0
 40
0.0
 40
0.0431256223673717
 40
0.0859920462888411
 40
0.1288398981523482
 40
0.1729185784204014
 40
0.2184152326474768
 40
0.2653291226806179
 40
0.3014557337690167
 40
0.3383799668477171
 40
0.3755446495782637
 40
0.4123551937000932
 40
0.4608706178220338
 40
0.5087614763603692
 40
0.5560307237730517
 40
0.602680933666719
 40
0.6487214190750188
 40
0.6948562442195982
 40
0.7415623358677849
 40
0.7888423160335056
 40
0.8366984545293573
 40
0.8729815304744883
 40
0.9095911060740056
 40
0.9465375751208245
 40
0.9838986273429385
 40
1.0
 40
1.0
 40
1.0
 40
1.0
 10
-10.77201745220252
 20
-7.000000000000003
 30
0.0
 10
-10.70951175743699
 20
-6.996842969711556
 30
0.0
 10
-10.58487604663362
 20
-6.990547883871709
 30
0.0
 10
-10.40385220028806
 20
-6.944100293936931
 30
0.0
 10
-10.22870165499526
 20
-6.874578951328504
 30
0.0
 10
-10.05766342823604
 20
-6.775454414714582
 30
0.0
 10
-9.892420559396228
 20
-6.64605909503925
 30
0.0
 10
-9.749937747312034
 20
-6.499308725369144
 30
0.0
 10
-9.630015462229503
 20
-6.343701560108823
 30
0.0
 10
-9.531420586250341
 20
-6.187006889565389
 30
0.0
 10
-9.445086169601643
 20
-6.016988662121803
 30
0.0
 10
-9.364913747382555
 20
-5.817585513820708
 30
0.0
 10
-9.297787850920146
 20
-5.5885562022749
 30
0.0
 10
-9.25117846904204
 20
-5.331310218623876
 30
0.0
 10
-9.231089027332464
 20
-5.071762520084695
 30
0.0
 10
-9.236839383613399
 20
-4.814438616033965
 30
0.0
 10
-9.267458532102513
 20
-4.56223843441695
 30
0.0
 10
-9.322417776797565
 20
-4.317019398768205
 30
0.0
 10
-9.401683442937292
 20
-4.080826019105504
 30
0.0
 10
-9.504977356624767
 20
-3.85721731173335
 30
0.0
 10
-9.620719716523723
 20
-3.6680513677801
 30
0.0
 10
-9.741657413371762
 20
-3.511753962637647
 30
0.0
 10
-9.862008105106973
 20
-3.384309666859459
 30
0.0
 10
-9.993265342060392
 20
-3.273518665668561
 30
0.0
 10
-10.10593185629627
 20
-3.19395457906213
 30
0.0
 10
-10.1768542571909
 20
-3.158945611547264
 30
0.0
 10
-10.19821408157445
 20
-3.148401899144212
 30
0.0
  0
SPLINE
  5
37E
330
23
100
AcDbEntity
  8
0
  6
Continuous
 62
     7
370
    25
100
AcDbSpline
210
0.0
220
0.0
230
1.0
 70
     8
 71
     3
 72
    26
 73
    22
 74
     0
 42
0.00000001
 43
0.00000001
 40
0.0
 40
0.0
 40
0.0
 40
0.0
 40
0.0023727930593299
 40
0.0574100115417997
 40
0.1125162664031141
 40
0.1677249570626076
 40
0.2230569727680957
 40
0.2785200657119496
 40
0.3341103636716781
 40
0.3898153100098457
 40
0.4456171468777694
 40
0.5014961697394844
 40
0.5574332680783024
 40
0.6134115828867615
 40
0.6694173495231666
 40
0.7254401175377456
 40
0.7814725646905382
 40
0.837509200084519
 40
0.8935481374921665
 40
0.9495891964618424
 40
1.0
 40
1.0
 40
1.0
 40
1.0
 10
-11.3477152256635
 20
-3.023757290530773
 30
0.0
 10
-11.34946930577713
 20
-3.024019500044218
 30
0.0
 10
-11.39190948368158
 20
-3.030363690547493
 30
0.0
 10
-11.47372123463953
 20
-3.054162332186749
 30
0.0
 10
-11.5920904572686
 20
-3.095888227931195
 30
0.0
 10
-11.70729779824915
 20
-3.150864902376874
 30
0.0
 10
-11.81884896250607
 20
-3.216980270555684
 30
0.0
 10
-11.92600369934907
 20
-3.294335384756282
 30
0.0
 10
-12.02810408969589
 20
-3.382341707653225
 30
0.0
 10
-12.12449673580667
 20
-3.480498667812724
 30
0.0
 10
-12.2145655221237
 20
-3.58818678368228
 30
0.0
 10
-12.29773396979845
 20
-3.704729667058142
 30
0.0
 10
-12.37347347849586
 20
-3.829386527362874
 30
0.0
 10
-12.44130793881916
 20
-3.961364568066888
 30
0.0
 10
-12.50081471576085
 20
-4.09982600460985
 30
0.0
 10
-12.55163294085678
 20
-4.243895846310394
 30
0.0
 10
-12.59343795271941
 20
-4.392667574204549
 30
0.0
 10
-12.62603868723611
 20
-4.545210844392159
 30
0.0
 10
-12.64901646282243
 20
-4.700575199782953
 30
0.0
 10
-12.66260118069474
 20
-4.852535133584231
 30
0.0
 10
-12.6642056058048
 20
-4.952609358255544
 30
0.0
 10
-12.66496538921402
 20
-5.0
 30
0.0
  0
SPLINE
  5
37F
330
23
100
AcDbEntity
  8
0
  6
Continuous
 62
     7
370
    25
100
AcDbSpline
210
0.0
220
0.0
230
1.0
 70
     8
 71
     3
 72
    26
 73
    22
 74
     0
 42
0.00000001
 43
0.00000001
 40
0.0
 40
0.0
 40
0.0
 40
0.0
 40
0.0299926107233147
 40
0.0863586076868725
 40
0.1427417641700731
 40
0.1991333273002613
 40
0.2555344599317296
 40
0.3119453445140278
 40
0.3683646912460219
 40
0.4247879521560228
 40
0.4812079646749677
 40
0.5376145580650319
 40
0.593993841037965
 40
0.6503281349381013
 40
0.7065964722506517
 40
0.7627759088480025
 40
0.8188438212521814
 40
0.8747811500282748
 40
0.930576213342514
 40
0.9862283429226005
 40
1.0
 40
1.0
 40
1.0
 40
1.0
 10
-12.66496538921402
 20
-5.0
 30
0.0
 10
-12.66468993465858
 20
-5.028028624521084
 30
0.0
 10
-12.66389681024178
 20
-5.108732268873637
 30
0.0
 10
-12.65513620770638
 20
-5.241830687094332
 30
0.0
 10
-12.63562494250855
 20
-5.398030398881236
 30
0.0
 10
-12.60646465764151
 20
-5.551801661618462
 30
0.0
 10
-12.56799036771778
 20
-5.702178650281149
 30
0.0
 10
-12.52037765126262
 20
-5.848230189350646
 30
0.0
 10
-12.46391347008559
 20
-5.989044378686685
 30
0.0
 10
-12.39892393017421
 20
-6.123735724821713
 30
0.0
 10
-12.32579378931788
 20
-6.2514494011632
 30
0.0
 10
-12.2449610393876
 20
-6.3713675199055
 30
0.0
 10
-12.15691842631136
 20
-6.482713779906824
 30
0.0
 10
-12.06221356868918
 20
-6.584762686657534
 30
0.0
 10
-11.96144686536754
 20
-6.676836591619904
 30
0.0
 10
-11.85527414600635
 20
-6.758354220964562
 30
0.0
 10
-11.74438281356831
 20
-6.828691859323821
 30
0.0
 10
-11.62955464095776
 20
-6.88774278577418
 30
0.0
 10
-11.51139202309174
 20
-6.933875057456145
 30
0.0
 10
-11.42131577819638
 20
-6.962130480133512
 30
0.0
 10
-11.37041487082323
 20
-6.970993233443909
 30
0.0
 10
-11.36031761345624
 20
-6.972751345543937
 30
0.0
  0
SPLINE
  5
384
330
23
100
AcDbEntity
  8
0
  6
Continuous
 62
     7
370
    25
100
AcDbSpline
210
0.0
220
0.0
230
1.0
 70
     8
 71
     3
 72
     9
 73
     5
 74
     0
 42
0.00000001
 43
0.00000001
 40
0.0
 40
0.0
 40
0.0
 40
0.0
 40
0.6195973808615453
 40
1.0
 40
1.0
 40
1.0
 40
1.0
 10
-11.44788369720432
 20
-3.048769868810669
 30
0.0
 10
-11.46627055669953
 20
-3.042858653043321
 30
0.0
 10
-11.49594605253465
 20
-3.033318238654982
 30
0.0
 10
-11.52633275977802
 20
-3.028347906282795
 30
0.0
 10
-11.5378919428004
 20
-3.026457178830425
 30
0.0
  0
SPLINE
  5
386
330
23
100
AcDbEntity
  8
0
  6
Continuous
 62
     7
370
    25
100
AcDbSpline
210
0.0
220
0.0
230
1.0
 70
     8
 71
     3
 72
    39
 73
    35
 74
     0
 42
0.00000001
 43
0.00000001
 40
0.0
 40
0.0
 40
0.0
 40
0.0
 40
0.0358083112101385
 40
0.0752360644426108
 40
0.1162078945296984
 40
0.1573741087658714
 40
0.1986771990263148
 40
0.2401166629191644
 40
0.2816914953853147
 40
0.3125498695056915
 40
0.33748821682588
 40
0.3564854307269666
 40
0.3695526706178092
 40
0.3832270887892681
 40
0.3993771941872605
 40
0.4198486069268357
 40
0.4446402422244595
 40
0.4737508088447027
 40
0.5070066005123378
 40
0.5399223365721444
 40
0.5849368660156569
 40
0.624744290978258
 40
0.6593439837760533
 40
0.6887350484785429
 40
0.7148429223243126
 40
0.7395853710438247
 40
0.7632503866166728
 40
0.7906692626710851
 40
0.823568974155042
 40
0.8619524214852442
 40
0.9058231116600327
 40
0.953057925092455
 40
0.9999736652845056
 40
1.0
 40
1.0
 40
1.0
 40
1.0
 10
-12.27593414535644
 20
-3.010757785297603
 30
0.0
 10
-12.32536865316752
 20
-3.01904266715159
 30
0.0
 10
-12.42923442314302
 20
-3.036449852355276
 30
0.0
 10
-12.58411118422241
 20
-3.089317912984328
 30
0.0
 10
-12.74015455104129
 20
-3.164195843928357
 30
0.0
 10
-12.89133341706198
 20
-3.263058537279279
 30
0.0
 10
-13.03376662901219
 20
-3.38318637776299
 30
0.0
 10
-13.16557931649335
 20
-3.523531420785601
 30
0.0
 10
-13.27465120786909
 20
-3.668676940138896
 30
0.0
 10
-13.35817866847294
 20
-3.803780129330072
 30
0.0
 10
-13.41620751899061
 20
-3.913430816646521
 30
0.0
 10
-13.45656298267864
 20
-4.000196736106792
 30
0.0
 10
-13.48661889248152
 20
-4.071529639837401
 30
0.0
 10
-13.51293563595514
 20
-4.13963924524717
 30
0.0
 10
-13.54132602167584
 20
-4.221026145727119
 30
0.0
 10
-13.57221131905585
 20
-4.322505172648628
 30
0.0
 10
-13.60384913810186
 20
-4.448141854658893
 30
0.0
 10
-13.63272382173561
 20
-4.598499098681311
 30
0.0
 10
-13.65365540436291
 20
-4.765790712758895
 30
0.0
 10
-13.66478350146059
 20
-4.963009344644155
 30
0.0
 10
-13.65979976455257
 20
-5.172596848962994
 30
0.0
 10
-13.63635756735594
 20
-5.382920589078158
 30
0.0
 10
-13.60213383354052
 20
-5.562116094324912
 30
0.0
 10
-13.56236951079276
 20
-5.713759659787838
 30
0.0
 10
-13.51935414963839
 20
-5.84502875675601
 30
0.0
 10
-13.47313704059707
 20
-5.963138999341676
 30
0.0
 10
-13.42023822371546
 20
-6.079174113560659
 30
0.0
 10
-13.35500409832161
 20
-6.202236454798077
 30
0.0
 10
-13.26962062815388
 20
-6.338494139467041
 30
0.0
 10
-13.15872302932389
 20
-6.484317128424968
 30
0.0
 10
-13.02113280912586
 20
-6.630462725970028
 30
0.0
 10
-12.85990955841227
 20
-6.758437352888973
 30
0.0
 10
-12.74441906936618
 20
-6.836682191791302
 30
0.0
 10
-12.68285468848903
 20
-6.862341768588127
 30
0.0
 10
-12.68282015059402
 20
-6.862356163726306
 30
0.0
  0
SPLINE
  5
389
330
23
100
AcDbEntity
  8
0
  6
Continuous
 62
     7
370
    25
100
AcDbSpline
210
0.0
220
0.0
230
1.0
 70
     8
 71
     3
 72
    31
 73
    27
 74
     0
 42
0.00000001
 43
0.00000001
 40
0.0
 40
0.0
 40
0.0
 40
0.0
 40
0.043125622367301
 40
0.0859920462886906
 40
0.128839898152115
 40
0.1729185784206088
 40
0.2184152326475214
 40
0.2653291226804452
 40
0.3014557337692905
 40
0.3383799668479474
 40
0.3755446495781964
 40
0.4123551937001732
 40
0.4608706178220036
 40
0.5087614763604204
 40
0.5560307237731064
 40
0.6026809336667841
 40
0.648721419075077
 40
0.6948562442195945
 40
0.7415623358678469
 40
0.7888423160336816
 40
0.8366984545296917
 40
0.8729815304743905
 40
0.9095911060741212
 40
0.9465375751209772
 40
0.9838986273432333
 40
1.0
 40
1.0
 40
1.0
 40
1.0
 10
10.77201745220252
 20
-3.000000000000002
 30
0.0
 10
10.70951175743709
 20
-3.003157030288535
 30
0.0
 10
10.58487604663397
 20
-3.009452116128554
 30
0.0
 10
10.4038522002887
 20
-3.05589970606275
 30
0.0
 10
10.22870165499554
 20
-3.125421048671382
 30
0.0
 10
10.05766342823601
 20
-3.224545585285209
 30
0.0
 10
9.89242055939622
 20
-3.353940904960715
 30
0.0
 10
9.749937747312101
 20
-3.500691274631102
 30
0.0
 10
9.630015462229075
 20
-3.656298439891208
 30
0.0
 10
9.531420586249956
 20
-3.812993110434944
 30
0.0
 10
9.445086169601767
 20
-3.983011337878494
 30
0.0
 10
9.364913747382717
 20
-4.182414486179023
 30
0.0
 10
9.297787850920002
 20
-4.411443797724902
 30
0.0
 10
9.251178469042216
 20
-4.668689781375961
 30
0.0
 10
9.231089027332509
 20
-4.928237479915236
 30
0.0
 10
9.236839383613212
 20
-5.185561383965976
 30
0.0
 10
9.267458532102614
 20
-5.437761565582801
 30
0.0
 10
9.32241777679757
 20
-5.682980601231504
 30
0.0
 10
9.401683442937028
 20
-5.919173980894577
 30
0.0
 10
9.504977356625025
 20
-6.142782688267063
 30
0.0
 10
9.6207197165241
 20
-6.331948632219738
 30
0.0
 10
9.741657413371668
 20
-6.488246037362572
 30
0.0
 10
9.862008105106874
 20
-6.615690333140244
 30
0.0
 10
9.993265342060655
 20
-6.726481334331645
 30
0.0
 10
10.10593185629644
 20
-6.806045420937887
 30
0.0
 10
10.17685425719084
 20
-6.841054388452704
 30
0.0
 10
10.19821408157399
 20
-6.851598100855576
 30
0.0
  0
SPLINE
  5
38B
330
23
100
AcDbEntity
  8
0
  6
Continuous
 62
     7
370
    25
100
AcDbSpline
210
0.0
220
0.0
230
1.0
 70
     8
 71
     3
 72
    25
 73
    21
 74
     0
 42
0.00000001
 43
0.00000001
 40
0.0
 40
0.0
 40
0.0
 40
0.0
 40
0.054788183915376
 40
0.1100477176181302
 40
0.1654099720457105
 40
0.22089589454968
 40
0.2765132588852439
 40
0.3322581820592579
 40
0.3881180725078204
 40
0.4440751229885603
 40
0.500109574157039
 40
0.5562022623404
 40
0.6123362816375936
 40
0.6684978291204042
 40
0.7246764252709552
 40
0.7808647274823913
 40
0.8370572295846944
 40
0.893252040103705
 40
0.9494489780859081
 40
1.0
 40
1.0
 40
1.0
 40
1.0
 10
11.35385341429394
 20
-6.975222369611741
 30
0.0
 10
11.39384807074343
 20
-6.965898964727812
 30
0.0
 10
11.47418146281179
 20
-6.947171944509532
 30
0.0
 10
11.59204379777935
 20
-6.903724980141364
 30
0.0
 10
11.70731034048925
 20
-6.849239068697888
 30
0.0
 10
11.81884559005732
 20
-6.782991772945897
 30
0.0
 10
11.92600460614093
 20
-6.705672132252301
 30
0.0
 10
12.02810384594304
 20
-6.617656271715457
 30
0.0
 10
12.12449680130027
 20
-6.51950187510814
 30
0.0
 10
12.21456550453543
 20
-6.411813070516849
 30
0.0
 10
12.29773397451928
 20
-6.295270372076156
 30
0.0
 10
12.37347347722934
 20
-6.170613462138119
 30
0.0
 10
12.44130793915881
 20
-6.038635434748707
 30
0.0
 10
12.50081471566979
 20
-5.90017399463531
 30
0.0
 10
12.5516329408812
 20
-5.756104153891922
 30
0.0
 10
12.59343795271287
 20
-5.607332425741179
 30
0.0
 10
12.62603868723789
 20
-5.454789155622292
 30
0.0
 10
12.64901646282197
 20
-5.299424800213055
 30
0.0
 10
12.66260118069484
 20
-5.147464866416565
 30
0.0
 10
12.66420560580483
 20
-5.047390641744701
 30
0.0
 10
12.66496538921402
 20
-5.0
 30
0.0
  0
SPLINE
  5
38C
330
23
100
AcDbEntity
  8
0
  6
Continuous
 62
     7
370
    25
100
AcDbSpline
210
0.0
220
0.0
230
1.0
 70
     8
 71
     3
 72
    26
 73
    22
 74
     0
 42
0.00000001
 43
0.00000001
 40
0.0
 40
0.0
 40
0.0
 40
0.0
 40
0.0299337377246203
 40
0.0861890929272378
 40
0.1424615739667894
 40
0.1987424451517797
 40
0.2550328670539154
 40
0.3113330217646127
 40
0.3676416220145182
 40
0.4239541287592464
 40
0.4802633934892228
 40
0.5365592654309246
 40
0.5928278805635989
 40
0.6490515949332742
 40
0.7052094821826507
 40
0.7612786432215333
 40
0.8172364989799429
 40
0.8730640274350753
 40
0.9287495696836117
 40
0.984292458765026
 40
1.0
 40
1.0
 40
1.0
 40
1.0
 10
12.66496538921402
 20
-5.0
 30
0.0
 10
12.66468993465859
 20
-4.971971375478915
 30
0.0
 10
12.66389681024178
 20
-4.891267731126352
 30
0.0
 10
12.65513620770637
 20
-4.758169312905771
 30
0.0
 10
12.6356249425086
 20
-4.601969601118397
 30
0.0
 10
12.60646465764132
 20
-4.448198338382896
 30
0.0
 10
12.56799036771849
 20
-4.297821349713816
 30
0.0
 10
12.52037765125996
 20
-4.151769810668151
 30
0.0
 10
12.46391347009549
 20
-4.010955621243117
 30
0.0
 10
12.39892393013719
 20
-3.876264275440097
 30
0.0
 10
12.32579378945584
 20
-3.748550597859543
 30
0.0
 10
12.24496103887266
 20
-3.628632483739586
 30
0.0
 10
12.15691842823119
 20
-3.517286206500965
 30
0.0
 10
12.06221356153375
 20
-3.415237363999635
 30
0.0
 10
11.96144689201972
 20
-3.323163219691828
 30
0.0
 10
11.85527404679282
 20
-3.241646481429941
 30
0.0
 10
11.74438318267655
 20
-3.171305527525359
 30
0.0
 10
11.62955326837815
 20
-3.112266931582495
 30
0.0
 10
11.51139712601914
 20
-3.066088815700055
 30
0.0
 10
11.41988773936978
 20
-3.037519429282357
 30
0.0
 10
11.36753777388113
 20
-3.028455394198438
 30
0.0
 10
11.35599694194634
 20
-3.026457178830423
 30
0.0
  0
SPLINE
  5
390
330
23
100
AcDbEntity
  8
0
  6
Continuous
 62
     7
370
    25
100
AcDbSpline
210
0.0
220
0.0
230
1.0
 70
     8
 71
     3
 72
     9
 73
     5
 74
     0
 42
0.00000001
 43
0.00000001
 40
0.0
 40
0.0
 40
0.0
 40
0.0
 40
0.0518506009604479
 40
1.0
 40
1.0
 40
1.0
 40
1.0
 10
11.54617365908326
 20
-3.023757290530773
 30
0.0
 10
11.5444193627271
 20
-3.024018241238722
 30
0.0
 10
11.51058568821474
 20
-3.029050983446433
 30
0.0
 10
11.47743602284301
 20
-3.039172838255906
 30
0.0
 10
11.44600518754244
 20
-3.048769868810673
 30
0.0
  0
SPLINE
  5
391
330
23
100
AcDbEntity
  8
0
  6
Continuous
 62
     7
370
    25
100
AcDbSpline
210
0.0
220
0.0
230
1.0
 70
     8
 71
     3
 72
     9
 73
     5
 74
     0
 42
0.00000001
 43
0.00000001
 40
0.0
 40
0.0
 40
0.0
 40
0.0
 40
0.6505216116369357
 40
1.0
 40
1.0
 40
1.0
 40
1.0
 10
11.44788369720431
 20
-6.951230131189329
 30
0.0
 10
11.46626601429361
 20
-6.95717053541911
 30
0.0
 10
11.49452382581049
 20
-6.966302290803587
 30
0.0
 10
11.52345903945809
 20
-6.971081214864894
 30
0.0
 10
11.53357127129059
 20
-6.97275134554395
 30
0.0
  0
SPLINE
  5
393
330
23
100
AcDbEntity
  8
0
  6
Continuous
 62
     7
370
    25
100
AcDbSpline
210
0.0
220
0.0
230
1.0
 70
     8
 71
     3
 72
    39
 73
    35
 74
     0
 42
0.00000001
 43
0.00000001
 40
0.0
 40
0.0
 40
0.0
 40
0.0
 40
0.0358083112097031
 40
0.0752360644423411
 40
0.1162078945292422
 40
0.1573741087654497
 40
0.1986771990258572
 40
0.2401166629185937
 40
0.2816914953851398
 40
0.3125498695053641
 40
0.337488216825538
 40
0.3564854307266414
 40
0.3695526706174793
 40
0.3832270887889337
 40
0.399377194186918
 40
0.4198486069264904
 40
0.4446402422241209
 40
0.4737508088443782
 40
0.5070066005120202
 40
0.5399223365718293
 40
0.5849368660153464
 40
0.6247442909779515
 40
0.6593439837757442
 40
0.6887350484782384
 40
0.714842922324032
 40
0.7395853710435629
 40
0.7632503866163987
 40
0.7906692626708414
 40
0.8235689741549533
 40
0.8619524214847737
 40
0.9058231116597185
 40
0.9530579250921424
 40
0.9999736652843442
 40
1.0
 40
1.0
 40
1.0
 40
1.0
 10
12.27593414535822
 20
-6.989242214702243
 30
0.0
 10
12.32536865316869
 20
-6.980957332848253
 30
0.0
 10
12.42923442314378
 20
-6.963550147644423
 30
0.0
 10
12.58411118422256
 20
-6.910682087015822
 30
0.0
 10
12.74015455104136
 20
-6.835804156071488
 30
0.0
 10
12.8913334170618
 20
-6.736941462720822
 30
0.0
 10
13.03376662901188
 20
-6.616813622237241
 30
0.0
 10
13.16557931649327
 20
-6.476468579214391
 30
0.0
 10
13.27465120786929
 20
-6.331323059861139
 30
0.0
 10
13.35817866847301
 20
-6.196219870669328
 30
0.0
 10
13.41620751899078
 20
-6.086569183353357
 30
0.0
 10
13.45656298267887
 20
-5.999803263893149
 30
0.0
 10
13.4866188924817
 20
-5.928470360162504
 30
0.0
 10
13.51293563595521
 20
-5.86036075475271
 30
0.0
 10
13.54132602167585
 20
-5.778973854272771
 30
0.0
 10
13.57221131905592
 20
-5.677494827351346
 30
0.0
 10
13.6038491381019
 20
-5.551858145341042
 30
0.0
 10
13.63272382173562
 20
-5.401500901318604
 30
0.0
 10
13.65365540436292
 20
-5.234209287241009
 30
0.0
 10
13.66478350146059
 20
-5.036990655355758
 30
0.0
 10
13.65979976455255
 20
-4.827403151036942
 30
0.0
 10
13.63635756735594
 20
-4.617079410921801
 30
0.0
 10
13.60213383354048
 20
-4.43788390567508
 30
0.0
 10
13.56236951079272
 20
-4.286240340212132
 30
0.0
 10
13.51935414963838
 20
-4.154971243243881
 30
0.0
 10
13.47313704059684
 20
-4.036861000658325
 30
0.0
 10
13.42023822371528
 20
-3.920825886439268
 30
0.0
 10
13.35500409832156
 20
-3.79776354520139
 30
0.0
 10
13.26962062815373
 20
-3.661505860533077
 30
0.0
 10
13.15872302932405
 20
-3.515682871574945
 30
0.0
 10
13.02113280912602
 20
-3.369537274030655
 30
0.0
 10
12.85990955841317
 20
-3.241562647109472
 30
0.0
 10
12.74441906936405
 20
-3.16331780821156
 30
0.0
 10
12.68285468848828
 20
-3.137658231411569
 30
0.0
 10
12.68282015059306
 20
-3.137643836273303
 30
0.0
  0
SPLINE
  5
394
330
23
100
AcDbEntity
  8
0
  6
Continuous
 62
     7
370
    25
100
AcDbSpline
210
0.0
220
0.0
230
1.0
 70
     8
 71
     3
 72
     9
 73
     5
 74
     0
 42
0.00000001
 43
0.00000001
 40
0.0
 40
0.0
 40
0.0
 40
0.0
 40
0.9588946722767974
 40
1.0
 40
1.0
 40
1.0
 40
1.0
 10
12.12187143254424
 20
-7.000000000000003
 30
0.0
 10
12.17160890285678
 20
-6.999794328720879
 30
0.0
 10
12.22347848952831
 20
-6.999579840847419
 30
0.0
 10
12.27386307063945
 20
-6.989650368900726
 30
0.0
 10
12.27593414535822
 20
-6.989242214702243
 30
0.0
  0
SPLINE
  5
3A9
330
23
100
AcDbEntity
  8
0
  6
Continuous
 62
     7
370
    25
100
AcDbSpline
210
0.0
220
0.0
230
1.0
 70
    11
 71
     3
 72
    70
 73
    66
 74
     0
 42
0.00000001
 43
0.00000001
 40
0.0
 40
0.0
 40
0.0
 40
0.0
 40
0.03125
 40
0.03125
 40
0.0625
 40
0.0625
 40
0.09375
 40
0.09375
 40
0.125
 40
0.125
 40
0.15625
 40
0.15625
 40
0.1875
 40
0.1875
 40
0.21875
 40
0.21875
 40
0.25
 40
0.25
 40
0.28125
 40
0.28125
 40
0.3125
 40
0.3125
 40
0.34375
 40
0.34375
 40
0.375
 40
0.375
 40
0.40625
 40
0.40625
 40
0.4375
 40
0.4375
 40
0.46875
 40
0.46875
 40
0.5
 40
0.5
 40
0.53125
 40
0.53125
 40
0.5625
 40
0.5625
 40
0.59375
 40
0.59375
 40
0.625
 40
0.625
 40
0.65625
 40
0.65625
 40
0.6875
 40
0.6875
 40
0.71875
 40
0.71875
 40
0.75
 40
0.75
 40
0.78125
 40
0.78125
 40
0.8125
 40
0.8125
 40
0.84375
 40
0.84375
 40
0.875
 40
0.875
 40
0.90625
 40
0.90625
 40
0.9375
 40
0.9375
 40
0.96875
 40
0.96875
 40
1.0
 40
1.0
 40
1.0
 40
1.0
 10
-11.64922455489043
 20
-5.000000000000002
 30
0.0
 10
-11.64922455489043
 20
-4.918187691325173
 30
0.0
 10
-11.64305206764007
 20
-4.83637740558282
 30
0.0
 10
-11.6185987192078
 20
-4.675896789376857
 30
0.0
 10
-11.60031846267732
 20
-4.597230427035166
 30
0.0
 10
-11.55235149428518
 20
-4.446060992052108
 30
0.0
 10
-11.52266596847987
 20
-4.37356165729969
 30
0.0
 10
-11.45302872382019
 20
-4.237512760151303
 30
0.0
 10
-11.4130787268504
 20
-4.173966561764193
 30
0.0
 10
-11.32444732618228
 20
-4.058266485269439
 30
0.0
 10
-11.27576811402866
 20
-4.006115468015688
 30
0.0
 10
-11.1715486123722
 20
-3.915210501227949
 30
0.0
 10
-11.11601089985616
 20
-3.87645879945403
 30
0.0
 10
-11.00020839421969
 20
-3.813842369267754
 30
0.0
 10
-10.93994646448658
 20
-3.789979189140288
 30
0.0
 10
-10.81701118021369
 20
-3.758057609851636
 30
0.0
 10
-10.7543408654299
 20
-3.75
 30
0.0
 10
-10.62899713655349
 20
-3.749999999999998
 30
0.0
 10
-10.56632682176971
 20
-3.758057609852202
 30
0.0
 10
-10.44339153749682
 20
-3.78997918913972
 30
0.0
 10
-10.38312960776545
 20
-3.813842369267754
 30
0.0
 10
-10.2673271021255
 20
-3.876458799454027
 30
0.0
 10
-10.21178938960982
 20
-3.915210501228196
 30
0.0
 10
-10.10756988795611
 20
-4.006115468015439
 30
0.0
 10
-10.05889067580144
 20
-4.058266485269032
 30
0.0
 10
-9.970259275132696
 20
-4.173966561764599
 30
0.0
 10
-9.930309278163453
 20
-4.237512760150826
 30
0.0
 10
-9.86067203350329
 20
-4.373561657300166
 30
0.0
 10
-9.830986507698395
 20
-4.446060992052709
 30
0.0
 10
-9.783019539305913
 20
-4.597230427034561
 30
0.0
 10
-9.764739282773938
 20
-4.675896789376861
 30
0.0
 10
-9.740285934344984
 20
-4.836377405582814
 30
0.0
 10
-9.734113447092966
 20
-4.918187691325746
 30
0.0
 10
-9.734113447092964
 20
-5.081812308674253
 30
0.0
 10
-9.740285934343241
 20
-5.163622594417751
 30
0.0
 10
-9.76473928277568
 20
-5.324103210622567
 30
0.0
 10
-9.78301953930591
 20
-5.402769572965435
 30
0.0
 10
-9.830986507698393
 20
-5.553939007947291
 30
0.0
 10
-9.860672033503295
 20
-5.62643834269983
 30
0.0
 10
-9.930309278163447
 20
-5.762487239849172
 30
0.0
 10
-9.970259275134435
 20
-5.826033438234832
 30
0.0
 10
-10.0588906757997
 20
-5.941733514731538
 30
0.0
 10
-10.10756988795684
 20
-5.993884531984634
 30
0.0
 10
-10.21178938960909
 20
-6.084789498771732
 30
0.0
 10
-10.26732710212765
 20
-6.123541200546193
 30
0.0
 10
-10.3831296077633
 20
-6.186157630732022
 30
0.0
 10
-10.44339153749726
 20
-6.210020810859258
 30
0.0
 10
-10.56632682176927
 20
-6.241942390148819
 30
0.0
 10
-10.6289971365522
 20
-6.250000000000003
 30
0.0
 10
-10.7543408654312
 20
-6.250000000000003
 30
0.0
 10
-10.81701118021412
 20
-6.241942390147686
 30
0.0
 10
-10.93994646448615
 20
-6.210020810860395
 30
0.0
 10
-11.00020839421835
 20
-6.186157630732026
 30
0.0
 10
-11.11601089985748
 20
-6.123541200546193
 30
0.0
 10
-11.17154861237257
 20
-6.084789498771732
 30
0.0
 10
-11.2757681140283
 20
-5.993884531984638
 30
0.0
 10
-11.32444732618259
 20
-5.941733514730726
 30
0.0
 10
-11.41307872685008
 20
-5.826033438235655
 30
0.0
 10
-11.45302872382043
 20
-5.762487239849356
 30
0.0
 10
-11.52266596847962
 20
-5.626438342699655
 30
0.0
 10
-11.55235149428535
 20
-5.553939007947361
 30
0.0
 10
-11.60031846267715
 20
-5.402769572965374
 30
0.0
 10
-11.61859871920963
 20
-5.324103210622575
 30
0.0
 10
-11.64305206763824
 20
-5.163622594417751
 30
0.0
 10
-11.64922455489043
 20
-5.08181230867483
 30
0.0
 10
-11.64922455489043
 20
-5.000000000000002
 30
0.0
  0
SPLINE
  5
3AA
330
23
100
AcDbEntity
  8
0
  6
Continuous
 62
     7
370
    25
100
AcDbSpline
210
0.0
220
0.0
230
1.0
 70
     8
 71
     3
 72
    10
 73
     6
 74
     0
 42
0.00000001
 43
0.00000001
 40
0.0
 40
0.0
 40
0.0
 40
0.0
 40
0.309700185708381
 40
0.6548500928541888
 40
1.0
 40
1.0
 40
1.0
 40
1.0
 10
-10.20520347980356
 20
-3.143603937713108
 30
0.0
 10
-10.26151460078203
 20
-3.116591566486175
 30
0.0
 10
-10.38058247514292
 20
-3.059474862582017
 30
0.0
 10
-10.57160250548864
 20
-3.010361435909468
 30
0.0
 10
-10.70521246996456
 20
-3.003453811969821
 30
0.0
 10
-10.77201745220252
 20
-2.999999999999997
 30
0.0
  0
LWPOLYLINE
  5
3AD
330
23
100
AcDbEntity
  8
0
  6
Continuous
 62
     7
370
    25
100
AcDbPolyline
 90
       10
 70
   128
 43
0.0
 10
-11.0268134449
 20
-5.0
 10
-11.0214275358
 20
-4.9218813585
 10
-11.005442916
 20
-4.8462735145
 10
-10.9793733445
 20
-4.7756065661
 10
-10.9440567187
 20
-4.7121518074
 10
-10.9006281439
 20
-4.6579487264
 10
-10.8504834503
 20
-4.6147394548
 10
-10.7952343297
 20
-4.5839127741
 10
-10.7366565342
 20
-4.5664594792
 10
-10.691669001
 20
-4.5625
  0
LWPOLYLINE
  5
3AE
330
23
100
AcDbEntity
  8
0
  6
Continuous
 62
     7
370
    25
100
AcDbPolyline
 90
       10
 70
   128
 43
0.0
 10
-10.691669001
 20
-5.4375
 10
-10.7366565342
 20
-5.4335405208
 10
-10.7952343297
 20
-5.4160872259
 10
-10.8504834503
 20
-5.3852605452
 10
-10.9006281439
 20
-5.3420512736
 10
-10.9440567187
 20
-5.2878481926
 10
-10.9793733445
 20
-5.2243934339
 10
-11.005442916
 20
-5.1537264855
 10
-11.0214275358
 20
-5.0781186415
 10
-11.0268134449
 20
-5.0
  0
LWPOLYLINE
  5
3AF
330
23
100
AcDbEntity
  8
0
  6
Continuous
 62
     7
370
    25
100
AcDbPolyline
 90
       18
 70
   128
 43
0.0
 10
-12.1481759122
 20
-3.5030461385
 10
-12.2251842535
 20
-3.5916474037
 10
-12.3128567417
 20
-3.7093440247
 10
-12.3925819043
 20
-3.8363068207
 10
-12.4637873601
 20
-3.971624271
 10
-12.5259618944
 20
-4.1143248735
 10
-12.5786591294
 20
-4.2633841189
 10
-12.6215007292
 20
-4.417731847
 10
-12.6541791153
 20
-4.5762599288
 10
-12.6764596755
 20
-4.7378302229
 10
-12.6881824482
 20
-4.9012827468
 10
-12.6892632704
 20
-5.0654440044
 10
-12.6796943825
 20
-5.2291354113
 10
-12.6595444838
 20
-5.3911817564
 10
-12.6289582388
 20
-5.5504196392
 10
-12.5881552396
 20
-5.7057058225
 10
-12.5374284283
 20
-5.8559254399
 10
-12.4771419947
 20
-6.0
  0
LWPOLYLINE
  5
3B1
330
23
100
AcDbEntity
  8
0
  6
Continuous
 62
     7
370
    25
100
AcDbPolyline
 90
       26
 70
   128
 43
0.0
 10
-11.687989796
 20
-3.0625
 10
-11.8050559299
 20
-3.0685361489
 10
-11.9298908054
 20
-3.0884065135
 10
-12.0529889694
 20
-3.1220010306
 10
-12.1734666472
 20
-3.1690785109
 10
-12.2904588777
 20
-3.2293009649
 10
-12.4031257233
 20
-3.3022360296
 10
-12.5106583001
 20
-3.3873600728
 10
-12.6122845855
 20
-3.4840619523
 10
-12.7072749608
 20
-3.5916474037
 10
-12.7949474489
 20
-3.7093440247
 10
-12.8746726116
 20
-3.8363068207
 10
-12.9458780673
 20
-3.971624271
 10
-13.0080526016
 20
-4.1143248735
 10
-13.0607498367
 20
-4.2633841189
 10
-13.1035914364
 20
-4.417731847
 10
-13.1362698225
 20
-4.5762599288
 10
-13.1585503828
 20
-4.7378302229
 10
-13.1702731554
 20
-4.9012827468
 10
-13.1713539777
 20
-5.0654440044
 10
-13.1617850898
 20
-5.2291354113
 10
-13.141635191
 20
-5.3911817564
 10
-13.1110489461
 20
-5.5504196392
 10
-13.0702459469
 20
-5.7057058225
 10
-13.0195191356
 20
-5.8559254399
 10
-12.9592327019
 20
-6.0
  0
LWPOLYLINE
  5
3B3
330
23
100
AcDbEntity
  8
0
  6
Continuous
 62
     7
370
    25
100
AcDbPolyline
 90
       36
 70
   128
 43
0.0
 10
-11.0139576927
 20
-5.0
 10
-11.0085717836
 20
-5.0781186415
 10
-10.9925871638
 20
-5.1537264855
 10
-10.9665175923
 20
-5.2243934339
 10
-10.9312009665
 20
-5.2878481926
 10
-10.8877723917
 20
-5.3420512736
 10
-10.8376276981
 20
-5.3852605452
 10
-10.7823785775
 20
-5.4160872259
 10
-10.723800782
 20
-5.4335405208
 10
-10.6637770502
 20
-5.4370594666
 10
-10.6042365941
 20
-5.4265309616
 10
-10.5470930931
 20
-5.4022934005
 10
-10.4941831863
 20
-5.3651257985
 10
-10.4472074416
 20
-5.3162227529
 10
-10.4076756981
 20
-5.2571560479
 10
-10.3768585386
 20
-5.1898241359
 10
-10.3557464519
 20
-5.1163911199
 10
-10.3450179979
 20
-5.0392171976
 10
-10.3450179979
 20
-4.9607828024
 10
-10.3557464519
 20
-4.8836088801
 10
-10.3768585386
 20
-4.8101758641
 10
-10.4076756981
 20
-4.7428439521
 10
-10.4472074416
 20
-4.6837772471
 10
-10.4941831863
 20
-4.6348742015
 10
-10.5470930931
 20
-4.5977065995
 10
-10.6042365941
 20
-4.5734690384
 10
-10.6637770502
 20
-4.5629405334
 10
-10.723800782
 20
-4.5664594792
 10
-10.7823785775
 20
-4.5839127741
 10
-10.8376276981
 20
-4.6147394548
 10
-10.8877723917
 20
-4.6579487264
 10
-10.9312009665
 20
-4.7121518074
 10
-10.9665175923
 20
-4.7756065661
 10
-10.9925871638
 20
-4.8462735145
 10
-11.0085717836
 20
-4.9218813585
 10
-11.0139576927
 20
-5.0
  0
SPLINE
  5
3B6
330
23
100
AcDbEntity
  8
0
  6
Continuous
 62
     7
370
    25
100
AcDbSpline
210
0.0
220
0.0
230
1.0
 70
     8
 71
     3
 72
    10
 73
     6
 74
     0
 42
0.00000001
 43
0.00000001
 40
0.0
 40
0.0
 40
0.0
 40
0.0
 40
0.354555369481735
 40
0.7091107389634667
 40
1.0
 40
1.0
 40
1.0
 40
1.0
 10
-12.12187143254424
 20
-7.000000000000003
 30
0.0
 10
-12.18867009545885
 20
-6.996519999474968
 30
0.0
 10
-12.32226742128809
 20
-6.989559998424899
 30
0.0
 10
-12.50830928676579
 20
-6.942118742904849
 30
0.0
 10
-12.62259407468281
 20
-6.887482654634712
 30
0.0
 10
-12.67409999158572
 20
-6.862859239098563
 30
0.0
  0
SPLINE
  5
3B7
330
23
100
AcDbEntity
  8
0
  6
Continuous
 62
     7
370
    25
100
AcDbSpline
210
0.0
220
0.0
230
1.0
 70
    11
 71
     3
 72
    39
 73
    35
 74
     0
 42
0.00000001
 43
0.00000001
 40
0.0
 40
0.0
 40
0.0
 40
0.0
 40
0.03125
 40
0.0624999999999998
 40
0.09375
 40
0.1250000000000001
 40
0.15625
 40
0.1875
 40
0.2187500000000004
 40
0.2500000000000001
 40
0.2812499999999998
 40
0.3125000000000003
 40
0.3437500000000002
 40
0.3750000000000002
 40
0.4062500000000001
 40
0.4374999999999999
 40
0.46875
 40
0.5000000000000002
 40
0.53125
 40
0.5624999999999998
 40
0.59375
 40
0.6250000000000004
 40
0.6562499999999998
 40
0.6874999999999994
 40
0.7187500000000002
 40
0.7500000000000003
 40
0.7812499999999997
 40
0.8125000000000002
 40
0.8437500000000002
 40
0.8749999999999997
 40
0.9062500000000001
 40
0.9374999999999997
 40
0.9687499999999997
 40
0.9999999999999999
 40
0.9999999999999999
 40
0.9999999999999999
 40
0.9999999999999999
 10
11.64922455489043
 20
-5.0
 30
0.0
 10
11.64922455489043
 20
-4.918188369983103
 30
0.0
 10
11.63687937753904
 20
-4.75456510994931
 30
0.0
 10
11.58203770682133
 20
-4.518562145081794
 30
0.0
 10
11.49297966606312
 20
-4.301060566985331
 30
0.0
 10
11.37312770582639
 20
-4.110418839329868
 30
0.0
 10
11.22708766972932
 20
-3.953963216796094
 30
0.0
 10
11.06047179445891
 20
-3.83770620121666
 30
0.0
 10
10.87968303466255
 20
-3.766115484502603
 30
0.0
 10
10.6916690009917
 20
-3.741942257748696
 30
0.0
 10
10.50365496732085
 20
-3.766115484502603
 30
0.0
 10
10.32286620752449
 20
-3.83770620121666
 30
0.0
 10
10.15625033225408
 20
-3.953963216796094
 30
0.0
 10
10.010210296157
 20
-4.110418839329868
 30
0.0
 10
9.890358335920292
 20
-4.301060566985329
 30
0.0
 10
9.801300295162067
 20
-4.518562145081797
 30
0.0
 10
9.746458624444355
 20
-4.75456510994931
 30
0.0
 10
9.72794085841727
 20
-5.0
 30
0.0
 10
9.746458624444355
 20
-5.245434890050685
 30
0.0
 10
9.801300295162067
 20
-5.481437854918208
 30
0.0
 10
9.890358335920286
 20
-5.69893943301467
 30
0.0
 10
10.01021029615701
 20
-5.889581160670128
 30
0.0
 10
10.15625033225407
 20
-6.046036783203904
 30
0.0
 10
10.32286620752449
 20
-6.162293798783336
 30
0.0
 10
10.50365496732084
 20
-6.233884515497393
 30
0.0
 10
10.6916690009917
 20
-6.2580577422513
 30
0.0
 10
10.87968303466255
 20
-6.233884515497397
 30
0.0
 10
11.06047179445891
 20
-6.162293798783341
 30
0.0
 10
11.22708766972932
 20
-6.046036783203908
 30
0.0
 10
11.37312770582639
 20
-5.889581160670133
 30
0.0
 10
11.49297966606311
 20
-5.698939433014674
 30
0.0
 10
11.58203770682133
 20
-5.481437854918204
 30
0.0
 10
11.63687937753905
 20
-5.245434890050694
 30
0.0
 10
11.64922455489043
 20
-5.081811630016897
 30
0.0
 10
11.64922455489043
 20
-5.0
 30
0.0
  0
SPLINE
  5
3B8
330
23
100
AcDbEntity
  8
0
  6
Continuous
 62
     7
370
    25
100
AcDbSpline
210
0.0
220
0.0
230
1.0
 70
     8
 71
     3
 72
    10
 73
     6
 74
     0
 42
0.00000001
 43
0.00000001
 40
0.0
 40
0.0
 40
0.0
 40
0.0
 40
0.3451499071455219
 40
0.6902998142910403
 40
1.0
 40
1.0
 40
1.0
 40
1.0
 10
10.77201745220252
 20
-7.000000000000003
 30
0.0
 10
10.70521246996456
 20
-6.996546188030181
 30
0.0
 10
10.57160250548864
 20
-6.989638564090535
 30
0.0
 10
10.38058247514276
 20
-6.940525137417933
 30
0.0
 10
10.26151460078171
 20
-6.883408433513698
 30
0.0
 10
10.2052034798031
 20
-6.856396062286687
 30
0.0
  0
LWPOLYLINE
  5
3BB
330
23
100
AcDbEntity
  8
0
  6
Continuous
 62
     7
370
    25
100
AcDbPolyline
 90
       10
 70
   128
 43
0.0
 10
11.0268134449
 20
-5.0
 10
11.0214275358
 20
-4.9218813585
 10
11.005442916
 20
-4.8462735145
 10
10.9793733445
 20
-4.7756065661
 10
10.9440567187
 20
-4.7121518074
 10
10.9006281439
 20
-4.6579487264
 10
10.8504834503
 20
-4.6147394548
 10
10.7952343297
 20
-4.5839127741
 10
10.7366565342
 20
-4.5664594792
 10
10.691669001
 20
-4.5625
  0
LWPOLYLINE
  5
3BC
330
23
100
AcDbEntity
  8
0
  6
Continuous
 62
     7
370
    25
100
AcDbPolyline
 90
       10
 70
   128
 43
0.0
 10
10.691669001
 20
-5.4375
 10
10.7366565342
 20
-5.4335405208
 10
10.7952343297
 20
-5.4160872259
 10
10.8504834503
 20
-5.3852605452
 10
10.9006281439
 20
-5.3420512736
 10
10.9440567187
 20
-5.2878481926
 10
10.9793733445
 20
-5.2243934339
 10
11.005442916
 20
-5.1537264855
 10
11.0214275358
 20
-5.0781186415
 10
11.0268134449
 20
-5.0
  0
LWPOLYLINE
  5
3BE
330
23
100
AcDbEntity
  8
0
  6
Continuous
 62
     7
370
    25
100
AcDbPolyline
 90
       18
 70
   128
 43
0.0
 10
12.159053175
 20
-3.5148274488
 10
12.2251842535
 20
-3.5916474037
 10
12.3128567417
 20
-3.7093440247
 10
12.3925819043
 20
-3.8363068207
 10
12.4637873601
 20
-3.971624271
 10
12.5259618944
 20
-4.1143248735
 10
12.5786591294
 20
-4.2633841189
 10
12.6215007292
 20
-4.417731847
 10
12.6541791153
 20
-4.5762599288
 10
12.6764596755
 20
-4.7378302229
 10
12.6881824482
 20
-4.9012827468
 10
12.6892632704
 20
-5.0654440044
 10
12.6796943825
 20
-5.2291354113
 10
12.6595444838
 20
-5.3911817564
 10
12.6289582388
 20
-5.5504196392
 10
12.5881552396
 20
-5.7057058225
 10
12.5374284283
 20
-5.8559254399
 10
12.4771419947
 20
-6.0
  0
LWPOLYLINE
  5
3C0
330
23
100
AcDbEntity
  8
0
  6
Continuous
 62
     7
370
    25
100
AcDbPolyline
 90
       26
 70
   128
 43
0.0
 10
11.687989796
 20
-3.0625
 10
11.8050559299
 20
-3.0685361489
 10
11.9298908054
 20
-3.0884065135
 10
12.0529889694
 20
-3.1220010306
 10
12.1734666472
 20
-3.1690785109
 10
12.2904588777
 20
-3.2293009649
 10
12.4031257233
 20
-3.3022360296
 10
12.5106583001
 20
-3.3873600728
 10
12.6122845855
 20
-3.4840619523
 10
12.7072749608
 20
-3.5916474037
 10
12.7949474489
 20
-3.7093440247
 10
12.8746726116
 20
-3.8363068207
 10
12.9458780673
 20
-3.971624271
 10
13.0080526016
 20
-4.1143248735
 10
13.0607498367
 20
-4.2633841189
 10
13.1035914364
 20
-4.417731847
 10
13.1362698225
 20
-4.5762599288
 10
13.1585503828
 20
-4.7378302229
 10
13.1702731554
 20
-4.9012827468
 10
13.1713539777
 20
-5.0654440044
 10
13.1617850898
 20
-5.2291354113
 10
13.141635191
 20
-5.3911817564
 10
13.1110489461
 20
-5.5504196392
 10
13.0702459469
 20
-5.7057058225
 10
13.0195191356
 20
-5.8559254399
 10
12.9592327019
 20
-6.0
  0
LWPOLYLINE
  5
3C1
330
23
100
AcDbEntity
  8
0
  6
Continuous
 62
     7
370
    25
100
AcDbPolyline
 90
       36
 70
   128
 43
0.0
 10
11.0139576927
 20
-5.0
 10
11.0085717836
 20
-5.0781186415
 10
10.9925871638
 20
-5.1537264855
 10
10.9665175923
 20
-5.2243934339
 10
10.9312009665
 20
-5.2878481926
 10
10.8877723917
 20
-5.3420512736
 10
10.8376276981
 20
-5.3852605452
 10
10.7823785775
 20
-5.4160872259
 10
10.723800782
 20
-5.4335405208
 10
10.6637770502
 20
-5.4370594666
 10
10.6042365941
 20
-5.4265309616
 10
10.5470930931
 20
-5.4022934005
 10
10.4941831863
 20
-5.3651257985
 10
10.4472074416
 20
-5.3162227529
 10
10.4076756981
 20
-5.2571560479
 10
10.3768585386
 20
-5.1898241359
 10
10.3557464519
 20
-5.1163911199
 10
10.3450179979
 20
-5.0392171976
 10
10.3450179979
 20
-4.9607828024
 10
10.3557464519
 20
-4.8836088801
 10
10.3768585386
 20
-4.8101758641
 10
10.4076756981
 20
-4.7428439521
 10
10.4472074416
 20
-4.6837772471
 10
10.4941831863
 20
-4.6348742015
 10
10.5470930931
 20
-4.5977065995
 10
10.6042365941
 20
-4.5734690384
 10
10.6637770502
 20
-4.5629405334
 10
10.723800782
 20
-4.5664594792
 10
10.7823785775
 20
-4.5839127741
 10
10.8376276981
 20
-4.6147394548
 10
10.8877723917
 20
-4.6579487264
 10
10.9312009665
 20
-4.7121518074
 10
10.9665175923
 20
-4.7756065661
 10
10.9925871638
 20
-4.8462735145
 10
11.0085717836
 20
-4.9218813585
 10
11.0139576927
 20
-5.0
  0
SPLINE
  5
3C4
330
23
100
AcDbEntity
  8
0
  6
Continuous
 62
     7
370
    25
100
AcDbSpline
210
0.0
220
0.0
230
1.0
 70
     8
 71
     3
 72
    10
 73
     6
 74
     0
 42
0.00000001
 43
0.00000001
 40
0.0
 40
0.0
 40
0.0
 40
0.0
 40
0.290889261035263
 40
0.6454446305176335
 40
1.0
 40
1.0
 40
1.0
 40
1.0
 10
12.67409999158477
 20
-3.137140760901016
 30
0.0
 10
12.62259407468218
 20
-3.112517345365022
 30
0.0
 10
12.50830928676546
 20
-3.057881257095044
 30
0.0
 10
12.32226742128809
 20
-3.010440001575106
 30
0.0
 10
12.18867009545886
 20
-3.003480000525034
 30
0.0
 10
12.12187143254424
 20
-3.0
 30
0.0
  0
SPLINE
  5
3D3
330
23
100
AcDbEntity
  8
0
  6
Continuous
 62
     7
370
    25
100
AcDbSpline
210
0.0
220
0.0
230
1.0
 70
     8
 71
     3
 72
    22
 73
    18
 74
     0
 42
0.00000001
 43
0.00000001
 40
0.0
 40
0.0
 40
0.0
 40
0.0
 40
0.125
 40
0.125
 40
0.25
 40
0.25
 40
0.375
 40
0.375
 40
0.5
 40
0.5
 40
0.625
 40
0.625
 40
0.75
 40
0.75
 40
0.875
 40
0.875
 40
1.0
 40
1.0
 40
1.0
 40
1.0
 10
-10.77201745220247
 20
-7.000000000000003
 30
0.0
 10
-10.87229243530672
 20
-7.000000000000007
 30
0.0
 10
-10.97256493895929
 20
-6.987107824236508
 30
0.0
 10
-11.16926139379265
 20
-6.936033297376443
 30
0.0
 10
-11.26568048136562
 20
-6.897852209171731
 30
0.0
 10
-11.45096449038724
 20
-6.797665920873458
 30
0.0
 10
-11.53982483041228
 20
-6.735663198036288
 30
0.0
 10
-11.70657603306064
 20
-6.590215251173943
 30
0.0
 10
-11.78446277250766
 20
-6.506773623569518
 30
0.0
 10
-11.92627301357617
 20
-6.321653501176724
 30
0.0
 10
-11.99019300872841
 20
-6.219979583758163
 30
0.0
 10
-12.10161260018324
 20
-6.002301348320295
 30
0.0
 10
-12.1491094414723
 20
-5.886302412715993
 30
0.0
 10
-12.22585659089929
 20
-5.644431316744406
 30
0.0
 10
-12.25510500135089
 20
-5.518565136996005
 30
0.0
 10
-12.29423035883731
 20
-5.261796151068532
 30
0.0
 10
-12.30410633844049
 20
-5.130899693879499
 30
0.0
 10
-12.30410633844049
 20
-5.0
 30
0.0
  0
SPLINE
  5
3D4
330
23
100
AcDbEntity
  8
0
  6
Continuous
 62
     7
370
    25
100
AcDbSpline
210
0.0
220
0.0
230
1.0
 70
     8
 71
     3
 72
    38
 73
    34
 74
     0
 42
0.00000001
 43
0.00000001
 40
0.0
 40
0.0
 40
0.0
 40
0.0
 40
0.0625000000000001
 40
0.0625000000000001
 40
0.1250000000000002
 40
0.1250000000000002
 40
0.1875000000000002
 40
0.1875000000000002
 40
0.2500000000000003
 40
0.2500000000000003
 40
0.3125000000000004
 40
0.3125000000000004
 40
0.3750000000000006
 40
0.3750000000000006
 40
0.4375000000000006
 40
0.4375000000000006
 40
0.5000000000000007
 40
0.5000000000000007
 40
0.5625000000000006
 40
0.5625000000000006
 40
0.6250000000000004
 40
0.6250000000000004
 40
0.6875000000000002
 40
0.6875000000000002
 40
0.7500000000000001
 40
0.7500000000000001
 40
0.8125
 40
0.8125
 40
0.8749999999999998
 40
0.8749999999999998
 40
0.9374999999999999
 40
0.9374999999999999
 40
1.0
 40
1.0
 40
1.0
 40
1.0
 10
-12.30410633844049
 20
-5.0
 30
0.0
 10
-12.30410633844049
 20
-5.196349540819668
 30
0.0
 10
-12.28179183701368
 20
-5.392672458581421
 30
0.0
 10
-12.19446703124337
 20
-5.768461758916902
 30
0.0
 10
-12.12946749804622
 20
-5.947881789462695
 30
0.0
 10
-11.9623381108633
 20
-6.274399142619925
 30
0.0
 10
-11.86023091796578
 20
-6.421452192714828
 30
0.0
 10
-11.62769026740057
 20
-6.670577660092099
 30
0.0
 10
-11.49728549263954
 20
-6.772619348801111
 30
0.0
 10
-11.21935947910623
 20
-6.922898781247924
 30
0.0
 10
-11.07187592435242
 20
-6.971116148581801
 30
0.0
 10
-10.77249976098213
 20
-7.009607359798434
 30
0.0
 10
-10.62064407915104
 20
-6.999876455951503
 30
0.0
 10
-10.32559939689557
 20
-6.923264665658449
 30
0.0
 10
-10.18245040160556
 20
-6.856394167012478
 30
0.0
 10
-9.917146687188897
 20
-6.671277244567375
 30
0.0
 10
-9.79502469215758
 20
-6.553053654160091
 30
0.0
 10
-9.58230933055765
 20
-6.275373470571774
 30
0.0
 10
-9.49174480608071
 20
-6.115954528066756
 30
0.0
 10
-9.349937016318536
 20
-5.769625125381854
 30
0.0
 10
-9.298711242423249
 20
-5.582757383467818
 30
0.0
 10
-9.240023206194834
 20
-5.19760390457184
 30
0.0
 10
-9.232568901377919
 20
-4.999370390585038
 30
0.0
 10
-9.2620548798421
 20
-4.60856256466927
 30
0.0
 10
-9.298991526152381
 20
-4.416036457233925
 30
0.0
 10
-9.414112250295025
 20
-4.053229813277618
 30
0.0
 10
-9.49228071889826
 20
-3.88299846974137
 30
0.0
 10
-9.683121898824472
 20
-3.579438209429467
 30
0.0
 10
-9.795771070695334
 20
-3.446146735528203
 30
0.0
 10
-10.04589787466436
 20
-3.227974815241908
 30
0.0
 10
-10.18334159205036
 20
-3.143123950804042
 30
0.0
 10
-10.47121289735583
 20
-3.029129512816356
 30
0.0
 10
-10.6216049775655
 20
-2.999999999998004
 30
0.0
 10
-10.77201745221804
 20
-3.0
 30
0.0
  0
LWPOLYLINE
  5
3D5
330
23
100
AcDbEntity
  8
0
  6
Continuous
 62
     7
370
    25
100
AcDbPolyline
 90
       18
 70
   128
 43
0.0
 10
-12.6415698335
 20
-5.0
 10
-12.6361965822
 20
-4.8326443133
 10
-12.6201145176
 20
-4.6664625066
 10
-12.5934364439
 20
-4.5026202257
 10
-12.5563494886
 20
-4.3422667065
 10
-12.50911379
 20
-4.1865267138
 10
-12.4520606727
 20
-4.0364926518
 10
-12.3855903233
 20
-3.8932169015
 10
-12.3101689835
 20
-3.7577044394
 10
-12.2263256798
 20
-3.6309057881
 10
-12.1346485127
 20
-3.513710349
 10
-12.0357805318
 20
-3.406940164
 10
-11.9304152248
 20
-3.311344149
 10
-11.8192916537
 20
-3.2275928415
 10
-11.7031892705
 20
-3.1562736968
 10
-11.58292245
 20
-3.0978869674
 10
-11.4593347775
 20
-3.0528421943
 10
-11.3397857455
 20
-3.0227254488
  0
LWPOLYLINE
  5
3D6
330
23
100
AcDbEntity
  8
0
  6
Continuous
 62
     7
370
    25
100
AcDbPolyline
 90
       18
 70
   128
 43
0.0
 10
-11.3521102974
 20
-6.9747612589
 10
-11.4593347775
 20
-6.9471578057
 10
-11.58292245
 20
-6.9021130326
 10
-11.7031892705
 20
-6.8437263032
 10
-11.8192916537
 20
-6.7724071585
 10
-11.9304152248
 20
-6.688655851
 10
-12.0357805318
 20
-6.593059836
 10
-12.1346485127
 20
-6.486289651
 10
-12.2263256798
 20
-6.3690942119
 10
-12.3101689835
 20
-6.2422955606
 10
-12.3855903233
 20
-6.1067830985
 10
-12.4520606727
 20
-5.9635073482
 10
-12.50911379
 20
-5.8134732862
 10
-12.5563494886
 20
-5.6577332935
 10
-12.5934364439
 20
-5.4973797743
 10
-12.6201145176
 20
-5.3335374934
 10
-12.6361965822
 20
-5.1673556867
 10
-12.6415698335
 20
-5.0
  0
LWPOLYLINE
  5
3D7
330
23
100
AcDbEntity
  8
0
  6
Continuous
 62
     7
370
    25
100
AcDbPolyline
 90
       36
 70
   128
 43
0.0
 10
-12.0251586577
 20
-3.0248469682
 10
-12.071492767
 20
-3.0354254985
 10
-12.1964170059
 20
-3.0736748664
 10
-12.3184512972
 20
-3.125436021
 10
-12.4367396581
 20
-3.1903458951
 10
-12.5504523806
 20
-3.2679491924
 10
-12.6587918517
 20
-3.3577015817
 10
-12.760998148
 20
-3.4589735144
 10
-12.8563543656
 20
-3.5710546407
 10
-12.9441916492
 20
-3.693158792
 10
-13.0238938833
 20
-3.8244294954
 10
-13.0949020141
 20
-3.9639459813
 10
-13.1567179706
 20
-4.1107296416
 10
-13.2089081582
 20
-4.2637508946
 10
-13.2511065002
 20
-4.4219364061
 10
-13.2830170056
 20
-4.5841766184
 10
-13.3044158452
 20
-4.7493335329
 10
-13.3151529214
 20
-4.9162486925
 10
-13.3151529214
 20
-5.0837513075
 10
-13.3044158452
 20
-5.2506664671
 10
-13.2830170056
 20
-5.4158233816
 10
-13.2511065002
 20
-5.5780635939
 10
-13.2089081582
 20
-5.7362491054
 10
-13.1567179706
 20
-5.8892703584
 10
-13.0949020141
 20
-6.0360540187
 10
-13.0238938833
 20
-6.1755705046
 10
-12.9441916492
 20
-6.306841208
 10
-12.8563543656
 20
-6.4289453593
 10
-12.760998148
 20
-6.5410264856
 10
-12.6587918517
 20
-6.6422984183
 10
-12.5504523806
 20
-6.7320508076
 10
-12.4367396581
 20
-6.8096541049
 10
-12.3184512972
 20
-6.874563979
 10
-12.1964170059
 20
-6.9263251336
 10
-12.071492767
 20
-6.9645745015
 10
-12.0153842586
 20
-6.9771410651
  0
LWPOLYLINE
  5
3D8
330
23
100
AcDbEntity
  8
0
  6
Continuous
 62
     7
370
    25
100
AcDbPolyline
 90
       15
 70
   128
 43
0.0
 10
-11.6157895049
 20
-6.8951116033
 10
-11.6888128314
 20
-6.8995601538
 10
-11.814020221
 20
-6.8960426056
 10
-11.9385324742
 20
-6.8784874214
 10
-12.0614277458
 20
-6.8470245736
 10
-12.1817961621
 20
-6.801887002
 10
-12.2987465577
 20
-6.7434088895
 10
-12.4114130726
 20
-6.6720231875
 10
-12.5189615633
 20
-6.5882584109
 10
-12.6205957786
 20
-6.4927347246
 10
-12.7155632542
 20
-6.3861593528
 10
-12.8031608841
 20
-6.269321342
 10
-12.8827401263
 20
-6.1430857201
 10
-12.9537118037
 20
-6.0083870915
 10
-12.9577118492
 20
-6.0
  0
SPLINE
  5
3DA
330
23
100
AcDbEntity
  8
0
  6
Continuous
 62
     7
370
    25
100
AcDbSpline
210
0.0
220
0.0
230
1.0
 70
     8
 71
     3
 72
    29
 73
    25
 74
     0
 42
0.00000001
 43
0.00000001
 40
0.0
 40
0.0
 40
0.0
 40
0.0
 40
0.0087883097224872
 40
0.0577302425164157
 40
0.1066721753103443
 40
0.1556141081042731
 40
0.2045560408982018
 40
0.2534979736921307
 40
0.3024399064860597
 40
0.3513818392799883
 40
0.4003237720739171
 40
0.449265704867846
 40
0.4982076376617749
 40
0.5471495704557038
 40
0.5960915032496324
 40
0.6450334360435614
 40
0.6939753688374902
 40
0.742917301631419
 40
0.7918592344253478
 40
0.8408011672192764
 40
0.8897431000132049
 40
0.9386850328071344
 40
0.9876269656010628
 40
0.9999999999999999
 40
0.9999999999999999
 40
0.9999999999999999
 40
0.9999999999999999
 10
-12.67409999158572
 20
-6.862859239098563
 30
0.0
 10
-12.68549680771944
 20
-6.857955605358233
 30
0.0
 10
-12.76036228015844
 20
-6.825743726853691
 30
0.0
 10
-12.88960881871247
 20
-6.735185302232755
 30
0.0
 10
-13.05734878138579
 20
-6.591731837105505
 30
0.0
 10
-13.20828436953742
 20
-6.418127432840054
 30
0.0
 10
-13.34084498076641
 20
-6.221039805772859
 30
0.0
 10
-13.45249131578219
 20
-6.002850492173179
 30
0.0
 10
-13.54138572939759
 20
-5.767558225534428
 30
0.0
 10
-13.60598774579254
 20
-5.519117794070187
 30
0.0
 10
-13.64519722302394
 20
-5.26179913941508
 30
0.0
 10
-13.65834187794852
 20
-4.999999954910123
 30
0.0
 10
-13.64519717787522
 20
-4.738201040944423
 30
0.0
 10
-13.60598792638738
 20
-4.480881574671559
 30
0.0
 10
-13.54138505216694
 20
-4.23244411913909
 30
0.0
 10
-13.45249384410993
 20
-3.997140760390996
 30
0.0
 10
-13.34083554468613
 20
-3.778992839296925
 30
0.0
 10
-13.2083195855308
 20
-3.581750734316643
 30
0.0
 10
-13.05721735349258
 20
-3.408722849197927
 30
0.0
 10
-12.89009931429195
 20
-3.263117785396826
 30
0.0
 10
-12.70988064331896
 20
-3.146501163801495
 30
0.0
 10
-12.51943690974138
 20
-3.064323169261745
 30
0.0
 10
-12.37177727058118
 20
-3.019847489360354
 30
0.0
 10
-12.28816516939707
 20
-3.013970553876554
 30
0.0
 10
-12.27129269190126
 20
-3.012784619540607
 30
0.0
  0
SPLINE
  5
3DB
330
23
100
AcDbEntity
  8
0
  6
Continuous
 62
     7
370
    25
100
AcDbSpline
210
0.0
220
0.0
230
1.0
 70
     8
 71
     3
 72
    22
 73
    18
 74
     0
 42
0.00000001
 43
0.00000001
 40
0.0
 40
0.0
 40
0.0
 40
0.0
 40
0.125
 40
0.125
 40
0.25
 40
0.25
 40
0.375
 40
0.375
 40
0.5
 40
0.5
 40
0.625
 40
0.625
 40
0.75
 40
0.75
 40
0.875
 40
0.875
 40
1.0
 40
1.0
 40
1.0
 40
1.0
 10
12.30410633844049
 20
-5.0
 30
0.0
 10
12.30410633844049
 20
-5.130899693899579
 30
0.0
 10
12.2942303588407
 20
-5.261796151046271
 30
0.0
 10
12.25510500134749
 20
-5.518565137018253
 30
0.0
 10
12.22585659090564
 20
-5.644431316724378
 30
0.0
 10
12.14910944146594
 20
-5.886302412736003
 30
0.0
 10
12.1016126001926
 20
-6.002301348302021
 30
0.0
 10
11.99019300871907
 20
-6.219979583776425
 30
0.0
 10
11.92627301358785
 20
-6.321653501161482
 30
0.0
 10
11.78446277249599
 20
-6.506773623584746
 30
0.0
 10
11.70657603307303
 20
-6.590215251163125
 30
0.0
 10
11.53982483039991
 20
-6.735663198047089
 30
0.0
 10
11.45096449040185
 20
-6.797665920865559
 30
0.0
 10
11.26568048135104
 20
-6.897852209179616
 30
0.0
 10
11.16926139381055
 20
-6.936033297371791
 30
0.0
 10
10.97256493894141
 20
-6.987107824241151
 30
0.0
 10
10.87229243532023
 20
-7.000000000000007
 30
0.0
 10
10.77201745220248
 20
-7.000000000000003
 30
0.0
  0
LWPOLYLINE
  5
3DC
330
23
100
AcDbEntity
  8
0
  6
Continuous
 62
     7
370
    25
100
AcDbPolyline
 90
       13
 70
   128
 43
0.0
 10
10.7720174522
 20
-3.0
 10
10.9719951807
 20
-3.0171102773
 10
11.1685512348
 20
-3.0681483474
 10
11.3583224859
 20
-3.152240935
 10
11.5380618953
 20
-3.2679491924
 10
11.704694072
 20
-3.4132933194
 10
11.855367893
 20
-3.5857864376
 10
11.9875052877
 20
-3.782477142
 10
12.0988453485
 20
-4.0
 10
12.1874830162
 20
-4.2346331353
 10
12.2519016756
 20
-4.4823619098
 10
12.2909991056
 20
-4.7389476156
 10
12.3041063384
 20
-5.0
  0
LWPOLYLINE
  5
3DD
330
23
100
AcDbEntity
  8
0
  6
Continuous
 62
     7
370
    25
100
AcDbPolyline
 90
       18
 70
   128
 43
0.0
 10
12.6415698335
 20
-5.0
 10
12.6361965822
 20
-4.8326443133
 10
12.6201145176
 20
-4.6664625066
 10
12.5934364439
 20
-4.5026202257
 10
12.5563494886
 20
-4.3422667065
 10
12.50911379
 20
-4.1865267138
 10
12.4520606727
 20
-4.0364926518
 10
12.3855903233
 20
-3.8932169015
 10
12.3101689835
 20
-3.7577044394
 10
12.2263256798
 20
-3.6309057881
 10
12.1346485127
 20
-3.513710349
 10
12.0357805318
 20
-3.406940164
 10
11.9304152248
 20
-3.311344149
 10
11.8192916537
 20
-3.2275928415
 10
11.7031892705
 20
-3.1562736968
 10
11.58292245
 20
-3.0978869674
 10
11.4593347775
 20
-3.0528421943
 10
11.3479382779
 20
-3.0243729324
  0
LWPOLYLINE
  5
3DE
330
23
100
AcDbEntity
  8
0
  6
Continuous
 62
     7
370
    25
100
AcDbPolyline
 90
       18
 70
   128
 43
0.0
 10
11.3456832251
 20
-6.9760886459
 10
11.4593347775
 20
-6.9471578057
 10
11.58292245
 20
-6.9021130326
 10
11.7031892705
 20
-6.8437263032
 10
11.8192916537
 20
-6.7724071585
 10
11.9304152248
 20
-6.688655851
 10
12.0357805318
 20
-6.593059836
 10
12.1346485127
 20
-6.486289651
 10
12.2263256798
 20
-6.3690942119
 10
12.3101689835
 20
-6.2422955606
 10
12.3855903233
 20
-6.1067830985
 10
12.4520606727
 20
-5.9635073482
 10
12.50911379
 20
-5.8134732862
 10
12.5563494886
 20
-5.6577332935
 10
12.5934364439
 20
-5.4973797743
 10
12.6201145176
 20
-5.3335374934
 10
12.6361965822
 20
-5.1673556867
 10
12.6415698335
 20
-5.0
  0
LWPOLYLINE
  5
3DF
330
23
100
AcDbEntity
  8
0
  6
Continuous
 62
     7
370
    25
100
AcDbPolyline
 90
       36
 70
   128
 43
0.0
 10
12.0176184575
 20
-3.023305915
 10
12.071492767
 20
-3.0354254985
 10
12.1964170059
 20
-3.0736748664
 10
12.3184512972
 20
-3.125436021
 10
12.4367396581
 20
-3.1903458951
 10
12.5504523806
 20
-3.2679491924
 10
12.6587918517
 20
-3.3577015817
 10
12.760998148
 20
-3.4589735144
 10
12.8563543656
 20
-3.5710546407
 10
12.9441916492
 20
-3.693158792
 10
13.0238938833
 20
-3.8244294954
 10
13.0949020141
 20
-3.9639459813
 10
13.1567179706
 20
-4.1107296416
 10
13.2089081582
 20
-4.2637508946
 10
13.2511065002
 20
-4.4219364061
 10
13.2830170056
 20
-4.5841766184
 10
13.3044158452
 20
-4.7493335329
 10
13.3151529214
 20
-4.9162486925
 10
13.3151529214
 20
-5.0837513075
 10
13.3044158452
 20
-5.2506664671
 10
13.2830170056
 20
-5.4158233816
 10
13.2511065002
 20
-5.5780635939
 10
13.2089081582
 20
-5.7362491054
 10
13.1567179706
 20
-5.8892703584
 10
13.0949020141
 20
-6.0360540187
 10
13.0238938833
 20
-6.1755705046
 10
12.9441916492
 20
-6.306841208
 10
12.8563543656
 20
-6.4289453593
 10
12.760998148
 20
-6.5410264856
 10
12.6587918517
 20
-6.6422984183
 10
12.5504523806
 20
-6.7320508076
 10
12.4367396581
 20
-6.8096541049
 10
12.3184512972
 20
-6.874563979
 10
12.1964170059
 20
-6.9263251336
 10
12.071492767
 20
-6.9645745015
 10
12.024433354
 20
-6.9753034525
  0
LWPOLYLINE
  5
3E0
330
23
100
AcDbEntity
  8
0
  6
Continuous
 62
     7
370
    25
100
AcDbPolyline
 90
       15
 70
   128
 43
0.0
 10
11.6150471627
 20
-6.8950417058
 10
11.6888128314
 20
-6.8995601538
 10
11.814020221
 20
-6.8960426056
 10
11.9385324742
 20
-6.8784874214
 10
12.0614277458
 20
-6.8470245736
 10
12.1817961621
 20
-6.801887002
 10
12.2987465577
 20
-6.7434088895
 10
12.4114130726
 20
-6.6720231875
 10
12.5189615633
 20
-6.5882584109
 10
12.6205957786
 20
-6.4927347246
 10
12.7155632542
 20
-6.3861593528
 10
12.8031608841
 20
-6.269321342
 10
12.8827401263
 20
-6.1430857201
 10
12.9537118037
 20
-6.0083870915
 10
12.9577118492
 20
-6.0
  0
SPLINE
  5
3E2
330
23
100
AcDbEntity
  8
0
  6
Continuous
 62
     7
370
    25
100
AcDbSpline
210
0.0
220
0.0
230
1.0
 70
     8
 71
     3
 72
    29
 73
    25
 74
     0
 42
0.00000001
 43
0.00000001
 40
0.0
 40
0.0
 40
0.0
 40
0.0
 40
0.0472153205346004
 40
0.0944306410692002
 40
0.1416459616038015
 40
0.1888612821384019
 40
0.2360766026730019
 40
0.2832919232076023
 40
0.3305072437422027
 40
0.3777225642768031
 40
0.4249378848114039
 40
0.4721532053460042
 40
0.5193685258806046
 40
0.5665838464152051
 40
0.6137991669498053
 40
0.6610144874844057
 40
0.7082298080190061
 40
0.7554451285536067
 40
0.8026604490882076
 40
0.8498757696228073
 40
0.8970910901574083
 40
0.9443064106920085
 40
0.9915217312266086
 40
1.0
 40
1.0
 40
1.0
 40
1.0
 10
12.12187143254424
 20
-7.000000000000003
 30
0.0
 10
12.18872131202738
 20
-6.996697708420052
 30
0.0
 10
12.32242107099366
 20
-6.990093125260158
 30
0.0
 10
12.51953924952633
 20
-6.936965835445098
 30
0.0
 10
12.70985322145623
 20
-6.853153448428271
 30
0.0
 10
12.89010666195792
 20
-6.736974760977284
 30
0.0
 10
13.05721538469142
 20
-6.591252353075872
 30
0.0
 10
13.20832011306948
 20
-6.418255910214064
 30
0.0
 10
13.34083540333257
 20
-6.221005380306436
 30
0.0
 10
13.45249388198549
 20
-6.002859716664848
 30
0.0
 10
13.54138504201821
 20
-5.767555753034179
 30
0.0
 10
13.60598792910673
 20
-5.51911845957951
 30
0.0
 10
13.64519717714658
 20
-5.261798949878032
 30
0.0
 10
13.65834187814376
 20
-5.000000047548991
 30
0.0
 10
13.64519722297163
 20
-4.738200859926008
 30
0.0
 10
13.60598774580656
 20
-4.480882206106372
 30
0.0
 10
13.54138572939383
 20
-4.232441774418263
 30
0.0
 10
13.4524913157832
 20
-3.997149507839499
 30
0.0
 10
13.34084498076614
 20
-3.77896019422375
 30
0.0
 10
13.20828436953751
 20
-3.581872567160858
 30
0.0
 10
13.05734878138577
 20
-3.408268162894253
 30
0.0
 10
12.88960881871248
 20
-3.264814697767305
 30
0.0
 10
12.76036228015814
 20
-3.17425627314613
 30
0.0
 10
12.68549680771881
 20
-3.142044394641481
 30
0.0
 10
12.67409999158477
 20
-3.137140760901016
 30
0.0
  0
LINE
  5
3E4
330
23
100
AcDbEntity
  8
0
  6
Continuous
 62
     7
370
    25
100
AcDbLine
 10
-11.1094809473
 20
-7.0
 30
0.0
 11
-10.7720174522
 21
-7.0
 31
0.0
  0
LINE
  5
3E5
330
23
100
AcDbEntity
  8
0
  6
Continuous
 62
     7
370
    25
100
AcDbLine
 10
-11.493317681
 20
-3.0625
 30
0.0
 11
-11.687989796
 21
-3.0625
 31
0.0
  0
LINE
  5
3E6
330
23
100
AcDbEntity
  8
0
  6
Continuous
 62
     7
370
    25
100
AcDbLine
 10
-10.691669001
 20
-5.4375
 30
0.0
 11
-10.6788132488
 21
-5.4375
 31
0.0
  0
LINE
  5
3E7
330
23
100
AcDbEntity
  8
0
  6
Continuous
 62
     7
370
    25
100
AcDbLine
 10
-10.6788132488
 20
-4.5625
 30
0.0
 11
-10.691669001
 21
-4.5625
 31
0.0
  0
LINE
  5
3E8
330
23
100
AcDbEntity
  8
0
  6
Continuous
 62
     7
370
    25
100
AcDbLine
 10
-11.5400354705
 20
-6.9752223696
 30
0.0
 11
-11.4460051875
 21
-6.9512301312
 31
0.0
  0
LINE
  5
3E9
330
23
100
AcDbEntity
  8
0
  6
Continuous
 62
     7
370
    25
100
AcDbLine
 10
-12.1218714325
 20
-7.0
 30
0.0
 11
-11.7844079375
 21
-7.0
 31
0.0
  0
LINE
  5
3EA
330
23
100
AcDbEntity
  8
0
  6
Continuous
 62
     7
370
    25
100
AcDbLine
 10
-10.625
 20
-3.0
 30
0.0
 11
-10.625
 21
-3.0125789476
 31
0.0
  0
LINE
  5
3EB
330
23
100
AcDbEntity
  8
0
  6
Continuous
 62
     7
370
    25
100
AcDbLine
 10
-9.875
 20
-3.3776034352
 30
0.0
 11
-9.875
 21
-3.0
 31
0.0
  0
LINE
  5
3EC
330
23
100
AcDbEntity
  8
0
  6
Continuous
 62
     7
370
    25
100
AcDbLine
 10
10.7720174522
 20
-7.0
 30
0.0
 11
11.1094809473
 21
-7.0
 31
0.0
  0
LINE
  5
3ED
330
23
100
AcDbEntity
  8
0
  6
Continuous
 62
     7
370
    25
100
AcDbLine
 10
11.687989796
 20
-3.0625
 30
0.0
 11
11.493636566
 21
-3.0625
 31
0.0
  0
LINE
  5
3EE
330
23
100
AcDbEntity
  8
0
  6
Continuous
 62
     7
370
    25
100
AcDbLine
 10
10.691669001
 20
-4.5625
 30
0.0
 11
10.6788132488
 21
-4.5625
 31
0.0
  0
LINE
  5
3EF
330
23
100
AcDbEntity
  8
0
  6
Continuous
 62
     7
370
    25
100
AcDbLine
 10
10.6788132488
 20
-5.4375
 30
0.0
 11
10.691669001
 21
-5.4375
 31
0.0
  0
LINE
  5
3F0
330
23
100
AcDbEntity
  8
0
  6
Continuous
 62
     7
370
    25
100
AcDbLine
 10
11.7844079375
 20
-7.0
 30
0.0
 11
12.1218714325
 21
-7.0
 31
0.0
  0
LINE
  5
3F1
330
23
100
AcDbEntity
  8
0
  6
Continuous
 62
     7
370
    25
100
AcDbLine
 10
9.875
 20
-3.0
 30
0.0
 11
9.875
 21
-3.3789981545
 31
0.0
  0
LINE
  5
3F2
330
23
100
AcDbEntity
  8
0
  6
Continuous
 62
     7
370
    25
100
AcDbLine
 10
10.625
 20
-3.0123604414
 30
0.0
 11
10.625
 21
-3.0
 31
0.0
  0
LINE
  5
3F3
330
23
100
AcDbEntity
  8
0
  6
Continuous
 62
     7
370
    25
100
AcDbLine
 10
2.1875
 20
36.0
 30
0.0
 11
1.9375
 21
36.0
 31
0.0
  0
LINE
  5
3F4
330
23
100
AcDbEntity
  8
0
  6
Continuous
 62
     7
370
    25
100
AcDbLine
 10
2.1875
 20
24.5
 30
0.0
 11
2.1875
 21
36.0
 31
0.0
  0
LINE
  5
3F5
330
23
100
AcDbEntity
  8
0
  6
Continuous
 62
     7
370
    25
100
AcDbLine
 10
1.9375
 20
24.5
 30
0.0
 11
2.1875
 21
24.5
 31
0.0
  0
LINE
  5
3F6
330
23
100
AcDbEntity
  8
0
  6
Continuous
 62
     7
370
    25
100
AcDbLine
 10
1.9375
 20
12.5
 30
0.0
 11
2.1875
 21
12.5
 31
0.0
  0
LINE
  5
3F7
330
23
100
AcDbEntity
  8
0
  6
Continuous
 62
     7
370
    25
100
AcDbLine
 10
2.1875
 20
12.5
 30
0.0
 11
2.1875
 21
24.0
 31
0.0
  0
LINE
  5
3F8
330
23
100
AcDbEntity
  8
0
  6
Continuous
 62
     7
370
    25
100
AcDbLine
 10
2.1875
 20
24.0
 30
0.0
 11
1.9375
 21
24.0
 31
0.0
  0
LINE
  5
3F9
330
23
100
AcDbEntity
  8
0
  6
Continuous
 62
     7
370
    25
100
AcDbLine
 10
2.1875
 20
12.0
 30
0.0
 11
1.9375
 21
12.0
 31
0.0
  0
LINE
  5
3FA
330
23
100
AcDbEntity
  8
0
  6
Continuous
 62
     7
370
    25
100
AcDbLine
 10
2.1875
 20
0.5
 30
0.0
 11
2.1875
 21
12.0
 31
0.0
  0
LINE
  5
3FB
330
23
100
AcDbEntity
  8
0
  6
Continuous
 62
     7
370
    25
100
AcDbLine
 10
1.9375
 20
0.5
 30
0.0
 11
2.1875
 21
0.5
 31
0.0
  0
LINE
  5
3FC
330
23
100
AcDbEntity
  8
0
  6
Continuous
 62
     7
370
    25
100
AcDbLine
 10
-1.9375
 20
36.0
 30
0.0
 11
-2.1875
 21
36.0
 31
0.0
  0
LINE
  5
3FD
330
23
100
AcDbEntity
  8
0
  6
Continuous
 62
     7
370
    25
100
AcDbLine
 10
-2.1875
 20
24.5
 30
0.0
 11
-1.9375
 21
24.5
 31
0.0
  0
LINE
  5
3FE
330
23
100
AcDbEntity
  8
0
  6
Continuous
 62
     7
370
    25
100
AcDbLine
 10
-2.1875
 20
36.0
 30
0.0
 11
-2.1875
 21
24.5
 31
0.0
  0
LINE
  5
3FF
330
23
100
AcDbEntity
  8
0
  6
Continuous
 62
     7
370
    25
100
AcDbLine
 10
-2.1875
 20
12.5
 30
0.0
 11
-1.9375
 21
12.5
 31
0.0
  0
LINE
  5
400
330
23
100
AcDbEntity
  8
0
  6
Continuous
 62
     7
370
    25
100
AcDbLine
 10
-2.1875
 20
24.0
 30
0.0
 11
-2.1875
 21
12.5
 31
0.0
  0
LINE
  5
401
330
23
100
AcDbEntity
  8
0
  6
Continuous
 62
     7
370
    25
100
AcDbLine
 10
-1.9375
 20
24.0
 30
0.0
 11
-2.1875
 21
24.0
 31
0.0
  0
LINE
  5
402
330
23
100
AcDbEntity
  8
0
  6
Continuous
 62
     7
370
    25
100
AcDbLine
 10
-2.1875
 20
0.5
 30
0.0
 11
-1.9375
 21
0.5
 31
0.0
  0
LINE
  5
403
330
23
100
AcDbEntity
  8
0
  6
Continuous
 62
     7
370
    25
100
AcDbLine
 10
-2.1875
 20
12.0
 30
0.0
 11
-2.1875
 21
0.5
 31
0.0
  0
LINE
  5
404
330
23
100
AcDbEntity
  8
0
  6
Continuous
 62
     7
370
    25
100
AcDbLine
 10
-1.9375
 20
12.0
 30
0.0
 11
-2.1875
 21
12.0
 31
0.0
  0
LINE
  5
405
330
23
100
AcDbEntity
  8
0
  6
Continuous
 62
     7
370
    25
100
AcDbLine
 10
-12.9592327019
 20
-6.0
 30
0.0
 11
-12.4567133609
 21
-6.0
 31
0.0
  0
LINE
  5
406
330
23
100
AcDbEntity
  8
0
  6
Continuous
 62
     7
370
    25
100
AcDbLine
 10
12.9592327019
 20
-6.0
 30
0.0
 11
12.4560597933
 21
-6.0
 31
0.0
  0
LINE
  5
407
330
23
100
AcDbEntity
  8
0
  6
Continuous
 62
     7
370
    25
100
AcDbLine
 10
11.0
 20
-3.0
 30
0.0
 11
11.0
 21
0.0
 31
0.0
  0
LINE
  5
408
330
23
100
AcDbEntity
  8
0
  6
Continuous
 62
     7
370
    25
100
AcDbLine
 10
13.0
 20
-3.0
 30
0.0
 11
-13.0
 21
-3.0
 31
0.0
  0
LINE
  5
409
330
23
100
AcDbEntity
  8
0
  6
Continuous
 62
     7
370
    25
100
AcDbLine
 10
-11.0
 20
-3.0
 30
0.0
 11
-11.0
 21
0.0
 31
0.0
  0
LINE
  5
40A
330
23
100
AcDbEntity
  8
0
  6
Continuous
 62
     7
370
    25
100
AcDbLine
 10
13.0
 20
0.0
 30
0.0
 11
-13.0
 21
0.0
 31
0.0
  0
LINE
  5
40B
330
23
100
AcDbEntity
  8
0
  6
Continuous
 62
     7
370
    25
100
AcDbLine
 10
13.0
 20
-3.0
 30
0.0
 11
13.0
 21
0.0
 31
0.0
  0
LINE
  5
40C
330
23
100
AcDbEntity
  8
0
  6
Continuous
 62
     7
370
    25
100
AcDbLine
 10
-13.0
 20
-3.0
 30
0.0
 11
-13.0
 21
0.0
 31
0.0
  0
LINE
  5
40D
330
23
100
AcDbEntity
  8
0
  6
Continuous
 62
     7
370
    25
100
AcDbLine
 10
-1.9375
 20
36.441
 30
0.0
 11
1.9375
 21
36.441
 31
0.0
  0
LINE
  5
40E
330
23
100
AcDbEntity
  8
0
  6
Continuous
 62
     7
370
    25
100
AcDbLine
 10
-1.9375
 20
0.0
 30
0.0
 11
-1.9375
 21
36.441
 31
0.0
  0
LINE
  5
40F
330
23
100
AcDbEntity
  8
0
  6
Continuous
 62
     7
370
    25
100
AcDbLine
 10
1.9375
 20
0.0
 30
0.0
 11
1.9375
 21
36.441
 31
0.0
  0
LINE
  5
410
330
23
100
AcDbEntity
  8
0
  6
Continuous
 62
     7
370
    25
100
AcDbLine
 10
-12.2982147794
 20
-3.015088098
 30
0.0
 11
-12.2712926919
 21
-3.0127846195
 31
0.0
  0
ARC
  5
411
330
23
100
AcDbEntity
  8
0
  6
Continuous
 62
     7
370
    25
100
AcDbCircle
 10
-11.1089034801
 20
-4.1841951634
 30
0.0
 40
1.184195304220169
100
AcDbArc
 50
90.0279400129
 51
101.2429566239
  0
ARC
  5
412
330
23
100
AcDbEntity
  8
0
  6
Continuous
 62
     7
370
    25
100
AcDbCircle
 10
-11.1088543105
 20
-5.8151137109
 30
0.0
 40
1.184886454807301
100
AcDbArc
 50
258.1529980789
 51
269.9696986602
  0
ARC
  5
413
330
23
100
AcDbEntity
  8
0
  6
Continuous
 62
     7
370
    25
100
AcDbCircle
 10
-11.7844107309
 20
-4.180992532
 30
0.0
 40
1.180945438603338
100
AcDbArc
 50
78.3505627139
 51
101.7627919855
  0
ARC
  5
414
330
23
100
AcDbEntity
  8
0
  6
Continuous
 62
     7
370
    25
100
AcDbCircle
 10
-11.7844027532
 20
-5.8189909963
 30
0.0
 40
1.180958948286515
100
AcDbArc
 50
258.7209197659
 51
281.5372216649
  0
ARC
  5
415
330
23
100
AcDbEntity
  8
0
  6
Continuous
 62
     7
370
    25
100
AcDbCircle
 10
11.1088711666
 20
-4.1846492397
 30
0.0
 40
1.184649396589954
100
AcDbArc
 50
78.3575219539
 51
89.9705078489
  0
ARC
  5
416
330
23
100
AcDbEntity
  8
0
  6
Continuous
 62
     7
370
    25
100
AcDbCircle
 10
11.1088801875
 20
-5.8154775705
 30
0.0
 40
1.184522581865852
100
AcDbArc
 50
270.0290589669
 51
281.5319492971
  0
ARC
  5
417
330
23
100
AcDbEntity
  8
0
  6
Continuous
 62
     7
370
    25
100
AcDbCircle
 10
11.7844110619
 20
-4.1806627454
 30
0.0
 40
1.180618703149666
100
AcDbArc
 50
78.6074535429
 51
101.2490420344
  0
ARC
  5
418
330
23
100
AcDbEntity
  8
0
  6
Continuous
 62
     7
370
    25
100
AcDbCircle
 10
11.78440497
 20
-5.8186774226
 30
0.0
 40
1.181269401175578
100
AcDbArc
 50
258.1473991626
 51
281.7238736761
  0
ARC
  5
419
330
23
100
AcDbEntity
  8
0
  6
Continuous
 62
     7
370
    25
100
AcDbCircle
 10
-10.7626745454
 20
-4.9999999999
 30
0.0
 40
2.413709805557644
100
AcDbArc
 50
159.1172216081
 51
200.8827787259
  0
ARC
  5
41A
330
23
100
AcDbEntity
  8
0
  6
Continuous
 62
     7
370
    25
100
AcDbCircle
 10
10.7626745454
 20
-4.9999999999
 30
0.0
 40
2.413709805557644
100
AcDbArc
 50
339.1172212741
 51
20.8827783919
  0
VIEWPORT
  5
41D
330
23
100
AcDbEntity
  8
0
100
AcDbViewport
 10
0.0
 20
0.0
 30
0.0
 40
8.4
 41
6.4
 68
     1
 69
     1
 12
0.0
 22
14.7202816478
 13
0.0
 23
0.0
 14
0.5
 24
0.5
 15
0.5
 25
0.5
 16
0.0
 26
0.0
 36
1.0
 17
0.0
 27
0.0
 37
0.0
 42
50.0
 43
0.0
 44
0.0
 45
75.3496228052
 50
0.0
 51
0.0
 72
   100
 90
   557152
  1

281
     0
 71
     1
 74
     0
110
0.0
120
0.0
130
0.0
111
1.0
121
0.0
131
0.0
112
0.0
122
1.0
132
0.0
 79
     0
146
0.0
  0
ENDBLK
  5
25
330
23
100
AcDbEntity
  8
0
100
AcDbBlockEnd
  0
ENDSEC
  0
SECTION
  2
ENTITIES
  0
SPLINE
  5
97
330
1F
100
AcDbEntity
  8
0
  6
Continuous
 62
     7
370
    25
100
AcDbSpline
210
0.0
220
0.0
230
1.0
 70
     8
 71
     3
 72
    35
 73
    31
 74
     0
 42
0.00000001
 43
0.00000001
 40
0.0
 40
0.0
 40
0.0
 40
0.0
 40
0.0385378157666579
 40
0.0778968984607747
 40
0.1178577181810666
 40
0.1544176963283612
 40
0.1860865443249582
 40
0.2128693483031065
 40
0.2379715725052589
 40
0.2643654178566351
 40
0.3015486926317187
 40
0.3413086121729119
 40
0.3846173088458715
 40
0.4194866842677659
 40
0.456398047475376
 40
0.4953554744287767
 40
0.5355525268253994
 40
0.5862022677538721
 40
0.6330703340417122
 40
0.6761698603209579
 40
0.7160472164325318
 40
0.7559899282335782
 40
0.7965506518433085
 40
0.8377689714631555
 40
0.8799096713095417
 40
0.9230172334713146
 40
0.945080531657549
 40
0.9696435546058647
 40
0.9974387905063006
 40
1.0
 40
1.0
 40
1.0
 40
1.0
 10
45.57500897486029
 20
-3.0
 30
0.0
 10
45.52583050976767
 20
-3.002604966976346
 30
0.0
 10
45.4264255532187
 20
-3.007870414537745
 30
0.0
 10
45.28077352827766
 20
-3.048530412035309
 30
0.0
 10
45.14348360329591
 20
-3.109557470774497
 30
0.0
 10
45.02030467328564
 20
-3.18798676066105
 30
0.0
 10
44.9169457561792
 20
-3.272683681942072
 30
0.0
 10
44.83041160557452
 20
-3.35854138818865
 30
0.0
 10
44.75335716161654
 20
-3.448089657898558
 30
0.0
 10
44.67099646676182
 20
-3.559253717885889
 30
0.0
 10
44.58283688506745
 20
-3.70199826237122
 30
0.0
 10
44.4926413650127
 20
-3.884521771914723
 30
0.0
 10
44.41876712889108
 20
-4.077912888896577
 30
0.0
 10
44.36082577502507
 20
-4.277325963996856
 30
0.0
 10
44.31809951982999
 20
-4.476858919913701
 30
0.0
 10
44.288183678982
 20
-4.692149196294037
 30
0.0
 10
44.27248922714153
 20
-4.937142362214211
 30
0.0
 10
44.27771336599661
 20
-5.198589413245379
 30
0.0
 10
44.30693294870778
 20
-5.461762474610343
 30
0.0
 10
44.35383779930768
 20
-5.697595788117417
 30
0.0
 10
44.41515620151256
 20
-5.911573500726188
 30
0.0
 10
44.4902471555522
 20
-6.109300432585934
 30
0.0
 10
44.58051427194314
 20
-6.294489590257728
 30
0.0
 10
44.6859459808533
 20
-6.465231159068313
 30
0.0
 10
44.80612663460132
 20
-6.618607348045992
 30
0.0
 10
44.91766750006112
 20
-6.728606325490722
 30
0.0
 10
45.01564406526308
 20
-6.806955386091819
 30
0.0
 10
45.10025202938976
 20
-6.862713088771774
 30
0.0
 10
45.16413361428316
 20
-6.900334670306672
 30
0.0
 10
45.20082986353012
 20
-6.914720845967759
 30
0.0
 10
45.2039259698342
 20
-6.915934624761777
 30
0.0
  0
SPLINE
  5
99
330
1F
100
AcDbEntity
  8
0
  6
Continuous
 62
     7
370
    25
100
AcDbSpline
210
0.0
220
0.0
230
1.0
 70
     8
 71
     3
 72
    47
 73
    43
 74
     0
 42
0.00000001
 43
0.00000001
 40
0.0
 40
0.0
 40
0.0
 40
0.0
 40
0.0119545420676077
 40
0.0368139745254377
 40
0.0617001898448271
 40
0.0866719259237329
 40
0.1117710350814555
 40
0.1370172676187071
 40
0.1624087525780096
 40
0.1879271437420558
 40
0.213545021934028
 40
0.2392329274227955
 40
0.2649643185075593
 40
0.2907180568280955
 40
0.3164775829709213
 40
0.3422321049996045
 40
0.3679771953535479
 40
0.3937112474838921
 40
0.4194346147912095
 40
0.4451489640237151
 40
0.4708568149506643
 40
0.4965612224821487
 40
0.5222655577270594
 40
0.5479729029317776
 40
0.5736860940037986
 40
0.5994086420310923
 40
0.625143845275067
 40
0.6508945791711338
 40
0.6766629905885353
 40
0.7024500491951705
 40
0.7282549042067329
 40
0.754074001343786
 40
0.7798985325347564
 40
0.8057120207821805
 40
0.8314934626779307
 40
0.8572151890468752
 40
0.882844642556995
 40
0.9083489046940093
 40
0.9337020065759155
 40
0.9588934784700008
 40
0.9839350929777537
 40
1.0
 40
1.0
 40
1.0
 40
1.0
 10
46.0060606615645
 20
-6.997973967361066
 30
0.0
 10
46.02287776459593
 20
-6.997744292533056
 30
0.0
 10
46.07466598024563
 20
-6.997037009625879
 30
0.0
 10
46.16096410387468
 20
-6.982486425249744
 30
0.0
 10
46.26405075447295
 20
-6.955143344657306
 30
0.0
 10
46.3652299400346
 20
-6.915026199933008
 30
0.0
 10
46.4639778934023
 20
-6.863187366201073
 30
0.0
 10
46.55972574458522
 20
-6.799638557052101
 30
0.0
 10
46.6518833663471
 20
-6.724767960961371
 30
0.0
 10
46.73984761272332
 20
-6.638986619874855
 30
0.0
 10
46.82302729716393
 20
-6.542833512607143
 30
0.0
 10
46.90086473048351
 20
-6.4369379409393
 30
0.0
 10
46.97285086660354
 20
-6.322008967710805
 30
0.0
 10
47.03853088511054
 20
-6.198817065320973
 30
0.0
 10
47.09750576160727
 20
-6.068179695563609
 30
0.0
 10
47.14943161705096
 20
-5.930947349184219
 30
0.0
 10
47.19401620485632
 20
-5.787994137517804
 30
0.0
 10
47.2310145858228
 20
-5.640213968175751
 30
0.0
 10
47.26022580074667
 20
-5.488521502993289
 30
0.0
 10
47.28149226535728
 20
-5.333848775864897
 30
0.0
 10
47.2946996729377
 20
-5.177141399554277
 30
0.0
 10
47.29977710750274
 20
-5.019354310600103
 30
0.0
 10
47.29669715668951
 20
-4.861448041150753
 30
0.0
 10
47.28547613420319
 20
-4.704384357956124
 30
0.0
 10
47.26617396100184
 20
-4.54911953989025
 30
0.0
 10
47.23889324307315
 20
-4.396598337452714
 30
0.0
 10
47.20377786796734
 20
-4.247748729187487
 30
0.0
 10
47.16101198621027
 20
-4.103479202104377
 30
0.0
 10
47.11081890911711
 20
-3.964675149253835
 30
0.0
 10
47.05346033126689
 20
-3.832196026664758
 30
0.0
 10
46.98923632337832
 20
-3.706873307269014
 30
0.0
 10
46.91848798082409
 20
-3.589511267103172
 30
0.0
 10
46.84160394774258
 20
-3.480888275755166
 30
0.0
 10
46.75902595498025
 20
-3.381749792571936
 30
0.0
 10
46.67125573201076
 20
-3.292798042158157
 30
0.0
 10
46.57885968238388
 20
-3.214683318433872
 30
0.0
 10
46.4824750169261
 20
-3.14796708818277
 30
0.0
 10
46.38280291512233
 20
-3.093175491036422
 30
0.0
 10
46.28059678787858
 20
-3.050490306717503
 30
0.0
 10
46.17660981702247
 20
-3.020794905870226
 30
0.0
 10
46.08402040630218
 20
-3.004006078995882
 30
0.0
 10
46.02619702829462
 20
-3.002438905090372
 30
0.0
 10
46.00359897920584
 20
-3.001826435288921
 30
0.0
  0
SPLINE
  5
9B
330
1F
100
AcDbEntity
  8
0
  6
Continuous
 62
     7
370
    25
100
AcDbSpline
210
0.0
220
0.0
230
1.0
 70
     8
 71
     3
 72
    11
 73
     7
 74
     0
 42
0.00000001
 43
0.00000001
 40
0.0
 40
0.0
 40
0.0
 40
0.0
 40
0.2043176197011065
 40
0.5367831887427623
 40
0.8696069469475424
 40
0.9999999999999999
 40
0.9999999999999999
 40
0.9999999999999999
 40
0.9999999999999999
 10
46.76666536210391
 20
-3.001600775716669
 30
0.0
 10
46.7451676764986
 20
-3.001817371510097
 30
0.0
 10
46.68868896337201
 20
-3.002386411913148
 30
0.0
 10
46.59784446461878
 20
-3.017904819952411
 30
0.0
 10
46.51538614264445
 20
-3.037972583553632
 30
0.0
 10
46.46881850942456
 20
-3.057112278356172
 30
0.0
 10
46.45570996992122
 20
-3.0625
 30
0.0
  0
SPLINE
  5
9C
330
1F
100
AcDbEntity
  8
0
  6
Continuous
 62
     7
370
    25
100
AcDbSpline
210
0.0
220
0.0
230
1.0
 70
     8
 71
     3
 72
    12
 73
     8
 74
     0
 42
0.00000001
 43
0.00000001
 40
0.0
 40
0.0
 40
0.0
 40
0.0
 40
0.2361011874849105
 40
0.475453388183274
 40
0.7133817461081847
 40
0.9502263196019389
 40
1.0
 40
1.0
 40
1.0
 40
1.0
 10
46.37865652096812
 20
-6.905794185344298
 30
0.0
 10
46.41184064679553
 20
-6.920505324628516
 30
0.0
 10
46.47866582978851
 20
-6.950130169345415
 30
0.0
 10
46.58213884178937
 20
-6.979557186797158
 30
0.0
 10
46.68706031129307
 20
-6.996425889314512
 30
0.0
 10
46.76484129075178
 20
-7.002367798292936
 30
0.0
 10
46.80719112214268
 20
-6.998944434211534
 30
0.0
 10
46.81454552802556
 20
-6.99834993812707
 30
0.0
  0
SPLINE
  5
A0
330
1F
100
AcDbEntity
  8
0
  6
Continuous
 62
     7
370
    25
100
AcDbSpline
210
0.0
220
0.0
230
1.0
 70
     8
 71
     3
 72
    36
 73
    32
 74
     0
 42
0.00000001
 43
0.00000001
 40
0.0
 40
0.0
 40
0.0
 40
0.0
 40
0.0445176008108215
 40
0.0904317433516139
 40
0.13800683667036
 40
0.175568648006308
 40
0.2148283545869974
 40
0.2557834506108502
 40
0.2984311805463997
 40
0.3427691518200069
 40
0.3840063257538943
 40
0.4173233629776605
 40
0.4427252005450218
 40
0.4552651528485803
 40
0.4652399754706158
 40
0.4791367150430879
 40
0.4981772357018452
 40
0.5223601607613186
 40
0.5503787813944722
 40
0.5890342272854399
 40
0.6225523042287086
 40
0.6510825987808011
 40
0.6775222429669897
 40
0.7112497162780462
 40
0.747162450777247
 40
0.7906803593688408
 40
0.8283499521277439
 40
0.8703292165865155
 40
0.9162743907483313
 40
0.962082233742195
 40
1.0
 40
1.0
 40
1.0
 40
1.0
 10
47.18370230541015
 20
-6.999999999999998
 30
0.0
 10
47.23882696234452
 20
-6.99656745098576
 30
0.0
 10
47.35080556715341
 20
-6.989594671998479
 30
0.0
 10
47.51496464069732
 20
-6.937085519157797
 30
0.0
 10
47.66343366513576
 20
-6.861762830729258
 30
0.0
 10
47.79794568980645
 20
-6.76425158064215
 30
0.0
 10
47.91822443789522
 20
-6.651749059687084
 30
0.0
 10
48.0345184368446
 20
-6.513468337952128
 30
0.0
 10
48.14408038819239
 20
-6.348789255792709
 30
0.0
 10
48.2402870418197
 20
-6.164464019222406
 30
0.0
 10
48.3157727366625
 20
-5.978478582525067
 30
0.0
 10
48.36845545105104
 20
-5.812979778530828
 30
0.0
 10
48.39966870391579
 20
-5.690746703152046
 30
0.0
 10
48.41782400284141
 20
-5.607034429202544
 30
0.0
 10
48.43033048236948
 20
-5.542812969462156
 30
0.0
 10
48.44344634662258
 20
-5.466427533199997
 30
0.0
 10
48.45789713328359
 20
-5.363604007064465
 30
0.0
 10
48.47092480075772
 20
-5.23387634476754
 30
0.0
 10
48.47980429644284
 20
-5.066975478157726
 30
0.0
 10
48.47858127354726
 20
-4.882111639470344
 30
0.0
 10
48.46540099756479
 20
-4.697541483960709
 30
0.0
 10
48.444878058212
 20
-4.537541391194061
 30
0.0
 10
48.41648523128679
 20
-4.380058914184221
 30
0.0
 10
48.37664678121786
 20
-4.213853830407881
 30
0.0
 10
48.31771881148605
 20
-4.025932053101412
 30
0.0
 10
48.24324439688439
 20
-3.842752859487655
 30
0.0
 10
48.15148580483462
 20
-3.665103663670381
 30
0.0
 10
48.04558104952881
 20
-3.500692098153743
 30
0.0
 10
47.91971404283465
 20
-3.348936456109507
 30
0.0
 10
47.78698893763703
 20
-3.22364560090896
 30
0.0
 10
47.69394072757176
 20
-3.164568619403996
 30
0.0
 10
47.65180092934877
 20
-3.137813756752729
 30
0.0
  0
SPLINE
  5
A2
330
1F
100
AcDbEntity
  8
0
  6
Continuous
 62
     7
370
    25
100
AcDbSpline
210
0.0
220
0.0
230
1.0
 70
     8
 71
     3
 72
    35
 73
    31
 74
     0
 42
0.00000001
 43
0.00000001
 40
0.0
 40
0.0
 40
0.0
 40
0.0
 40
0.0385378157672017
 40
0.0778968984606201
 40
0.1178577181813092
 40
0.1544176963281678
 40
0.1860865443249005
 40
0.2128693483032624
 40
0.237971572505318
 40
0.2643654178566512
 40
0.3015486926320768
 40
0.3413086121730523
 40
0.3846173088459113
 40
0.4194866842679373
 40
0.4563980474755772
 40
0.4953554744289514
 40
0.5355525268256128
 40
0.5862022677541159
 40
0.6330703340420117
 40
0.6761698603213124
 40
0.7160472164327562
 40
0.7559899282339008
 40
0.7965506518438427
 40
0.8377689714633386
 40
0.8799096713099042
 40
0.9230172334714113
 40
0.9450805316576184
 40
0.969643554606403
 40
0.9974387905066506
 40
1.0
 40
1.0
 40
1.0
 40
1.0
 10
-45.57500897486027
 20
-6.999999999999998
 30
0.0
 10
-45.52583050976703
 20
-6.997395033023602
 30
0.0
 10
-45.42642555321838
 20
-6.992129585462186
 30
0.0
 10
-45.28077352827694
 20
-6.951469587964307
 30
0.0
 10
-45.14348360329615
 20
-6.890442529225583
 30
0.0
 10
-45.02030467328587
 20
-6.812013239338833
 30
0.0
 10
-44.91694575617954
 20
-6.727316318057979
 30
0.0
 10
-44.8304116055745
 20
-6.641458611811483
 30
0.0
 10
-44.75335716161653
 20
-6.551910342101503
 30
0.0
 10
-44.67099646676181
 20
-6.440746282113698
 30
0.0
 10
-44.58283688506692
 20
-6.29800173762901
 30
0.0
 10
-44.49264136501262
 20
-6.115478228084947
 30
0.0
 10
-44.4187671288912
 20
-5.922087111103473
 30
0.0
 10
-44.36082577502507
 20
-5.722674036003215
 30
0.0
 10
-44.31809951983001
 20
-5.523141080086169
 30
0.0
 10
-44.28818367898194
 20
-5.307850803705864
 30
0.0
 10
-44.27248922714151
 20
-5.06285763778568
 30
0.0
 10
-44.27771336599669
 20
-4.801410586754385
 30
0.0
 10
-44.30693294870777
 20
-4.538237525389227
 30
0.0
 10
-44.35383779930772
 20
-4.302404211882306
 30
0.0
 10
-44.41515620151259
 20
-4.088426499273576
 30
0.0
 10
-44.4902471555523
 20
-3.890699567413554
 30
0.0
 10
-44.58051427194366
 20
-3.705510409742518
 30
0.0
 10
-44.68594598085328
 20
-3.534768840931156
 30
0.0
 10
-44.80612663460114
 20
-3.381392651954577
 30
0.0
 10
-44.91766750006055
 20
-3.271393674509482
 30
0.0
 10
-45.01564406526268
 20
-3.193044613908139
 30
0.0
 10
-45.10025202938969
 20
-3.137286911228541
 30
0.0
 10
-45.164133614283
 20
-3.099665329693149
 30
0.0
 10
-45.2008298635292
 20
-3.085279154032373
 30
0.0
 10
-45.20392596983286
 20
-3.084065375238525
 30
0.0
  0
SPLINE
  5
A4
330
1F
100
AcDbEntity
  8
0
  6
Continuous
 62
     7
370
    25
100
AcDbSpline
210
0.0
220
0.0
230
1.0
 70
     8
 71
     3
 72
    47
 73
    43
 74
     0
 42
0.00000001
 43
0.00000001
 40
0.0
 40
0.0
 40
0.0
 40
0.0
 40
0.0151131273643124
 40
0.0397052036450128
 40
0.0643237747451582
 40
0.0890269468531962
 40
0.1138561221785592
 40
0.1388308386130422
 40
0.1639492453207807
 40
0.1891931933928684
 40
0.2145355585379898
 40
0.2399471978560887
 40
0.2654018550948941
 40
0.2908786192312431
 40
0.3163611089435047
 40
0.3418386483594547
 40
0.3673068575356562
 40
0.3927641472012269
 40
0.4182108669560491
 40
0.443648665622901
 40
0.4690800358716259
 40
0.4945079997576358
 40
0.5199358921345048
 40
0.5453667620999155
 40
0.5708034150619609
 40
0.5962493243478673
 40
0.621707752747179
 40
0.647181544770804
 40
0.6726728241990245
 40
0.6981825502712012
 40
0.7237098813530235
 40
0.7492513013902846
 40
0.7747980970397409
 40
0.8003339685094
 40
0.8258381382768427
 40
0.85128323474111
 40
0.8766370507150965
 40
0.9018670217138535
 40
0.9269474581433572
 40
0.9518680028699308
 40
0.976640301884042
 40
1.0
 40
1.0
 40
1.0
 40
1.0
 10
-45.9920459181666
 20
-3.001600775716669
 30
0.0
 10
-46.01353968454386
 20
-3.001836048910994
 30
0.0
 10
-46.07000810107579
 20
-3.00245415857604
 30
0.0
 10
-46.16096739062786
 20
-3.017425521696091
 30
0.0
 10
-46.26404987018098
 20
-3.044880345776906
 30
0.0
 10
-46.36523017862121
 20
-3.084967408264232
 30
0.0
 10
-46.46397782893079
 20
-3.136814361009503
 30
0.0
 10
-46.55972576201086
 20
-3.200360976110517
 30
0.0
 10
-46.6518833616412
 20
-3.27523216511108
 30
0.0
 10
-46.73984761399228
 20
-3.361013346129304
 30
0.0
 10
-46.82302729682237
 20
-3.457166496544251
 30
0.0
 10
-46.90086473057533
 20
-3.563062056601241
 30
0.0
 10
-46.97285086657891
 20
-3.677991032949337
 30
0.0
 10
-47.03853088511716
 20
-3.801182934502083
 30
0.0
 10
-47.09750576160554
 20
-3.931820304483864
 30
0.0
 10
-47.14943161705145
 20
-4.069052650803163
 30
0.0
 10
-47.19401620485623
 20
-4.212005862485658
 30
0.0
 10
-47.23101458582283
 20
-4.359786031823403
 30
0.0
 10
-47.26022580074666
 20
-4.511478497007023
 30
0.0
 10
-47.28149226535729
 20
-4.666151224135127
 30
0.0
 10
-47.29469967293772
 20
-4.822858600445816
 30
0.0
 10
-47.29977710750274
 20
-4.980645689399974
 30
0.0
 10
-47.29669715668951
 20
-5.138551958849317
 30
0.0
 10
-47.2854761342032
 20
-5.295615642044101
 30
0.0
 10
-47.2661739610018
 20
-5.45088046010946
 30
0.0
 10
-47.2388932430732
 20
-5.603401662548873
 30
0.0
 10
-47.20377786796701
 20
-5.75225127080698
 30
0.0
 10
-47.16101198621122
 20
-5.89652079791665
 30
0.0
 10
-47.11081890911336
 20
-6.035324850668045
 30
0.0
 10
-47.05346033128058
 20
-6.167803973627552
 30
0.0
 10
-46.98923632332695
 20
-6.293126691639583
 30
0.0
 10
-46.91848798101553
 20
-6.410488736973386
 30
0.0
 10
-46.84160394702761
 20
-6.519111709031129
 30
0.0
 10
-46.75902595764531
 20
-6.618250264149808
 30
0.0
 10
-46.67125572208728
 20
-6.707201746650676
 30
0.0
 10
-46.5788597192681
 20
-6.785317466552413
 30
0.0
 10
-46.48247488009326
 20
-6.852029999694903
 30
0.0
 10
-46.3828034218042
 20
-6.906835292355813
 30
0.0
 10
-46.28059491412482
 20
-6.94946981537367
 30
0.0
 10
-46.17661674436029
 20
-6.979352524272925
 30
0.0
 10
-46.07345302337082
 20
-6.997371981028202
 30
0.0
 10
-46.00499661909027
 20
-6.998920169331258
 30
0.0
 10
-45.97177296261543
 20
-6.999671544996978
 30
0.0
  0
SPLINE
  5
A6
330
1F
100
AcDbEntity
  8
0
  6
Continuous
 62
     7
370
    25
100
AcDbSpline
210
0.0
220
0.0
230
1.0
 70
     8
 71
     3
 72
    12
 73
     8
 74
     0
 42
0.00000001
 43
0.00000001
 40
0.0
 40
0.0
 40
0.0
 40
0.0
 40
0.1324522922312775
 40
0.407886415427605
 40
0.6836172836925141
 40
0.9602956931152162
 40
1.0
 40
1.0
 40
1.0
 40
1.0
 10
-46.75265061870595
 20
-6.997973967361066
 30
0.0
 10
-46.73583484315223
 20
-6.997739448843552
 30
0.0
 10
-46.68405071546596
 20
-6.997017249809844
 30
0.0
 10
-46.59769614645149
 20
-6.982672622879818
 30
0.0
 10
-46.49484791046572
 20
-6.954459617060469
 30
0.0
 10
-46.4220765937476
 20
-6.928172714080911
 30
0.0
 10
-46.3847402650973
 20
-6.908289429244584
 30
0.0
 10
-46.38005475930235
 20
-6.905794185344311
 30
0.0
  0
SPLINE
  5
A7
330
1F
100
AcDbEntity
  8
0
  6
Continuous
 62
     7
370
    25
100
AcDbSpline
210
0.0
220
0.0
230
1.0
 70
     8
 71
     3
 72
    11
 73
     7
 74
     0
 42
0.00000001
 43
0.00000001
 40
0.0
 40
0.0
 40
0.0
 40
0.0
 40
0.0822215234325782
 40
0.4309529028207187
 40
0.7776097717051927
 40
1.0
 40
1.0
 40
1.0
 40
1.0
 10
-46.45481499026058
 20
-3.0625
 30
0.0
 10
-46.46277174923815
 20
-3.059097428467403
 30
0.0
 10
-46.50447601638471
 20
-3.041263313775649
 30
0.0
 10
-46.58223926351808
 20
-3.021431053170335
 30
0.0
 10
-46.67467043522009
 20
-3.003911724648421
 30
0.0
 10
-46.73250850878221
 20
-3.002412391955093
 30
0.0
 10
-46.75511230106473
 20
-3.001826435288921
 30
0.0
  0
SPLINE
  5
AB
330
1F
100
AcDbEntity
  8
0
  6
Continuous
 62
     7
370
    25
100
AcDbSpline
210
0.0
220
0.0
230
1.0
 70
     8
 71
     3
 72
    36
 73
    32
 74
     0
 42
0.00000001
 43
0.00000001
 40
0.0
 40
0.0
 40
0.0
 40
0.0
 40
0.0445176008103961
 40
0.0904317433519071
 40
0.1380068366703879
 40
0.1755686480059293
 40
0.2148283545868956
 40
0.2557834506107155
 40
0.2984311805462663
 40
0.3427691518198164
 40
0.384006325753644
 40
0.4173233629774184
 40
0.4427252005448356
 40
0.4552651528483367
 40
0.4652399754703179
 40
0.4791367150427517
 40
0.4981772357016551
 40
0.5223601607612276
 40
0.5503787813942642
 40
0.5890342272852591
 40
0.6225523042285798
 40
0.6510825987804145
 40
0.6775222429666734
 40
0.71124971627774
 40
0.7471624507768976
 40
0.790680359368532
 40
0.8283499521274529
 40
0.8703292165861586
 40
0.9162743907479823
 40
0.9620822337415186
 40
1.0
 40
1.0
 40
1.0
 40
1.0
 10
-47.18370230541016
 20
-3.0
 30
0.0
 10
-47.23882696234404
 20
-3.003432549014232
 30
0.0
 10
-47.35080556715337
 20
-3.010405328001575
 30
0.0
 10
-47.51496464069727
 20
-3.062914480842017
 30
0.0
 10
-47.6634336651359
 20
-3.138237169270746
 30
0.0
 10
-47.79794568980606
 20
-3.235748419357918
 30
0.0
 10
-47.91822443789491
 20
-3.348250940312435
 30
0.0
 10
-48.03451843684456
 20
-3.486531662047774
 30
0.0
 10
-48.14408038819227
 20
-3.651210744207108
 30
0.0
 10
-48.24028704181953
 20
-3.835535980777371
 30
0.0
 10
-48.31577273666246
 20
-4.021521417474444
 30
0.0
 10
-48.36845545105086
 20
-4.187020221468838
 30
0.0
 10
-48.39966870391573
 20
-4.309253296847622
 30
0.0
 10
-48.41782400284133
 20
-4.392965570797068
 30
0.0
 10
-48.43033048236933
 20
-4.457187030537226
 30
0.0
 10
-48.44344634662241
 20
-4.533572466799526
 30
0.0
 10
-48.45789713328359
 20
-4.636395992935415
 30
0.0
 10
-48.47092480075796
 20
-4.766123655232591
 30
0.0
 10
-48.47980429644286
 20
-4.933024521842522
 30
0.0
 10
-48.47858127354717
 20
-5.117888360529901
 30
0.0
 10
-48.46540099756456
 20
-5.302458516039231
 30
0.0
 10
-48.44487805821219
 20
-5.462458608805806
 30
0.0
 10
-48.41648523128678
 20
-5.619941085815309
 30
0.0
 10
-48.37664678121804
 20
-5.786146169591841
 30
0.0
 10
-48.31771881148602
 20
-5.974067946898321
 30
0.0
 10
-48.24324439688449
 20
-6.15724714051231
 30
0.0
 10
-48.1514858048346
 20
-6.334896336329556
 30
0.0
 10
-48.04558104952882
 20
-6.499307901846254
 30
0.0
 10
-47.91971404283497
 20
-6.651063543890047
 30
0.0
 10
-47.78698893763704
 20
-6.776354399091386
 30
0.0
 10
-47.69394072757131
 20
-6.83543138059635
 30
0.0
 10
-47.65180092934754
 20
-6.862186243247979
 30
0.0
  0
SPLINE
  5
154
330
1F
100
AcDbEntity
  8
0
  6
Continuous
 62
     7
370
    25
100
AcDbSpline
210
0.0
220
0.0
230
1.0
 70
    11
 71
     3
 72
    70
 73
    66
 74
     0
 42
0.00000001
 43
0.00000001
 40
0.0
 40
0.0
 40
0.0
 40
0.0
 40
0.03125
 40
0.03125
 40
0.0625
 40
0.0625
 40
0.09375
 40
0.09375
 40
0.125
 40
0.125
 40
0.15625
 40
0.15625
 40
0.1875
 40
0.1875
 40
0.21875
 40
0.21875
 40
0.25
 40
0.25
 40
0.28125
 40
0.28125
 40
0.3125
 40
0.3125
 40
0.34375
 40
0.34375
 40
0.375
 40
0.375
 40
0.40625
 40
0.40625
 40
0.4375
 40
0.4375
 40
0.46875
 40
0.46875
 40
0.5
 40
0.5
 40
0.53125
 40
0.53125
 40
0.5625
 40
0.5625
 40
0.59375
 40
0.59375
 40
0.625
 40
0.625
 40
0.65625
 40
0.65625
 40
0.6875
 40
0.6875
 40
0.71875
 40
0.71875
 40
0.75
 40
0.75
 40
0.78125
 40
0.78125
 40
0.8125
 40
0.8125
 40
0.84375
 40
0.84375
 40
0.875
 40
0.875
 40
0.90625
 40
0.90625
 40
0.9375
 40
0.9375
 40
0.96875
 40
0.96875
 40
1.0
 40
1.0
 40
1.0
 40
1.0
 10
44.51507200494061
 20
-5.000000000000002
 30
0.0
 10
44.5150720049406
 20
-4.901825229586119
 30
0.0
 10
44.52128720307265
 20
-4.803652886704186
 30
0.0
 10
44.54590975784978
 20
-4.611076147247426
 30
0.0
 10
44.56431650566492
 20
-4.516676512446222
 30
0.0
 10
44.6126153842522
 20
-4.335273190458506
 30
0.0
 10
44.64250632075413
 20
-4.24827398876383
 30
0.0
 10
44.71262542432986
 20
-4.085015312177362
 30
0.0
 10
44.75285185759375
 20
-4.008759874120535
 30
0.0
 10
44.84209654833099
 20
-3.869919782319822
 30
0.0
 10
44.89111259908599
 20
-3.807338561620945
 30
0.0
 10
44.99605325356784
 20
-3.698252601471417
 30
0.0
 10
45.05197526247056
 20
-3.65175055934625
 30
0.0
 10
45.16857907020049
 20
-3.576610843119889
 30
0.0
 10
45.22925798580901
 20
-3.547975026969054
 30
0.0
 10
45.35304392784663
 20
-3.509669131821253
 30
0.0
 10
45.41614789346624
 20
-3.499999999999999
 30
0.0
 10
45.54235894547461
 20
-3.499999999999999
 30
0.0
 10
45.60546291109419
 20
-3.509669131821253
 30
0.0
 10
45.72924885313181
 20
-3.547975026969052
 30
0.0
 10
45.78992776874032
 20
-3.576610843119891
 30
0.0
 10
45.90653157647026
 20
-3.65175055934625
 30
0.0
 10
45.96245358537165
 20
-3.698252601471199
 30
0.0
 10
46.06739423985615
 20
-3.807338561621164
 30
0.0
 10
46.11641029060846
 20
-3.86991978231973
 30
0.0
 10
46.20565498134847
 20
-4.008759874120627
 30
0.0
 10
46.24588141461126
 20
-4.08501531217737
 30
0.0
 10
46.31600051818641
 20
-4.248273988763818
 30
0.0
 10
46.34589145469053
 20
-4.335273190458401
 30
0.0
 10
46.39419033327402
 20
-4.516676512446325
 30
0.0
 10
46.41259708109109
 20
-4.611076147247459
 30
0.0
 10
46.4372196358681
 20
-4.803652886704153
 30
0.0
 10
46.44343483400019
 20
-4.901825229586829
 30
0.0
 10
46.44343483400021
 20
-5.098174770413171
 30
0.0
 10
46.43721963586808
 20
-5.196347113295847
 30
0.0
 10
46.41259708109111
 20
-5.388923852752539
 30
0.0
 10
46.39419033327579
 20
-5.483323487554353
 30
0.0
 10
46.34589145468876
 20
-5.664726809540913
 30
0.0
 10
46.31600051818641
 20
-5.751726011236858
 30
0.0
 10
46.24588141461125
 20
-5.914984687821947
 30
0.0
 10
46.20565498134846
 20
-5.991240125878694
 30
0.0
 10
46.11641029060847
 20
-6.13008021768095
 30
0.0
 10
46.06739423985526
 20
-6.19266143837791
 30
0.0
 10
45.96245358537252
 20
-6.301747398529724
 30
0.0
 10
45.90653157646901
 20
-6.348249440653436
 30
0.0
 10
45.78992776874158
 20
-6.423389156880429
 30
0.0
 10
45.72924885313233
 20
-6.452024973032148
 30
0.0
 10
45.60546291109365
 20
-6.490330868177548
 30
0.0
 10
45.54235894547512
 20
-6.500000000000001
 30
0.0
 10
45.41614789346568
 20
-6.500000000000001
 30
0.0
 10
45.35304392784543
 20
-6.490330868178907
 30
0.0
 10
45.22925798581024
 20
-6.452024973030785
 30
0.0
 10
45.16857907019921
 20
-6.423389156880429
 30
0.0
 10
45.05197526247181
 20
-6.348249440653436
 30
0.0
 10
44.9960532535683
 20
-6.301747398528365
 30
0.0
 10
44.89111259908555
 20
-6.192661438379274
 30
0.0
 10
44.84209654833137
 20
-6.130080217680766
 30
0.0
 10
44.75285185759336
 20
-5.991240125878882
 30
0.0
 10
44.71262542433017
 20
-5.914984687823328
 30
0.0
 10
44.64250632075383
 20
-5.751726011235486
 30
0.0
 10
44.61261538425073
 20
-5.664726809542456
 30
0.0
 10
44.56431650566639
 20
-5.483323487552819
 30
0.0
 10
44.54590975784993
 20
-5.38892385275281
 30
0.0
 10
44.5212872030725
 20
-5.19634711329558
 30
0.0
 10
44.51507200494061
 20
-5.098174770413884
 30
0.0
 10
44.51507200494061
 20
-5.000000000000002
 30
0.0
  0
SPLINE
  5
155
330
1F
100
AcDbEntity
  8
0
  6
Continuous
 62
     7
370
    25
100
AcDbSpline
210
0.0
220
0.0
230
1.0
 70
     8
 71
     3
 72
    10
 73
     6
 74
     0
 42
0.00000001
 43
0.00000001
 40
0.0
 40
0.0
 40
0.0
 40
0.0
 40
0.0810028329608634
 40
0.5405014164804295
 40
1.0
 40
1.0
 40
1.0
 40
1.0
 10
45.21420648857643
 20
-6.917027367874505
 30
0.0
 10
45.22353902151523
 20
-6.922089858932213
 30
0.0
 10
45.28581150123473
 20
-6.955869956338589
 30
0.0
 10
45.40708153398761
 20
-6.988449941523194
 30
0.0
 10
45.51903316123606
 20
-6.996149980507735
 30
0.0
 10
45.57500897486029
 20
-7.000000000000003
 30
0.0
  0
LWPOLYLINE
  5
157
330
1F
100
AcDbEntity
  8
0
  6
Continuous
 62
     7
370
    25
100
AcDbPolyline
 90
        3
 70
   128
 43
0.0
 10
46.0041766446
 20
-6.999559041
 10
46.0041053635
 20
-6.9995613669
 10
45.9771823075
 20
-7.0
  0
LWPOLYLINE
  5
158
330
1F
100
AcDbEntity
  8
0
  6
Continuous
 62
     7
370
    25
100
AcDbPolyline
 90
       20
 70
   128
 43
0.0
 10
45.4792534195
 20
-4.5625
 10
45.4918702882
 20
-4.5629405334
 10
45.5418306629
 20
-4.5734690384
 10
45.5897797535
 20
-4.5977065995
 10
45.6341764368
 20
-4.6348742015
 10
45.6735937668
 20
-4.6837772471
 10
45.7067648382
 20
-4.7428439521
 10
45.7326235054
 20
-4.8101758641
 10
45.7503386496
 20
-4.8836088801
 10
45.7593408914
 20
-4.9607828024
 10
45.7593408914
 20
-5.0392171976
 10
45.7503386496
 20
-5.1163911199
 10
45.7326235054
 20
-5.1898241359
 10
45.7067648382
 20
-5.2571560479
 10
45.6735937668
 20
-5.3162227529
 10
45.6341764368
 20
-5.3651257985
 10
45.5897797535
 20
-5.4022934005
 10
45.5418306629
 20
-5.4265309616
 10
45.4918702882
 20
-5.4370594666
 10
45.4792534195
 20
-5.4375
  0
LWPOLYLINE
  5
159
330
1F
100
AcDbEntity
  8
0
  6
Continuous
 62
     7
370
    25
100
AcDbPolyline
 90
       22
 70
   128
 43
0.0
 10
46.5825414038
 20
-3.2190664719
 10
46.5976205582
 20
-3.2293009649
 10
46.6921592668
 20
-3.3022360296
 10
46.7823898123
 20
-3.3873600728
 10
46.867664391
 20
-3.4840619523
 10
46.9473707798
 20
-3.5916474037
 10
47.0209367323
 20
-3.7093440247
 10
47.0878340868
 20
-3.8363068207
 10
47.1475825585
 20
-3.971624271
 10
47.1997531873
 20
-4.1143248735
 10
47.2439714178
 20
-4.2633841189
 10
47.2799197883
 20
-4.417731847
 10
47.3073402101
 20
-4.5762599288
 10
47.3260358199
 20
-4.7378302229
 10
47.3358723942
 20
-4.9012827468
 10
47.3367793117
 20
-5.0654440044
 10
47.3287500614
 20
-5.2291354113
 10
47.3118422888
 20
-5.3911817564
 10
47.286177382
 20
-5.5504196392
 10
47.2519396003
 20
-5.7057058225
 10
47.2093747517
 20
-5.8559254399
 10
47.1587884275
 20
-6.0
  0
LWPOLYLINE
  5
15B
330
1F
100
AcDbEntity
  8
0
  6
Continuous
 62
     7
370
    25
100
AcDbPolyline
 90
       26
 70
   128
 43
0.0
 10
46.6666223063
 20
-3.0625
 10
46.7648524561
 20
-3.0685361489
 10
46.8696013541
 20
-3.0884065135
 10
46.9728929781
 20
-3.1220010306
 10
47.0739857531
 20
-3.1690785109
 10
47.1721538906
 20
-3.2293009649
 10
47.2666925991
 20
-3.3022360296
 10
47.3569231447
 20
-3.3873600728
 10
47.4421977233
 20
-3.4840619523
 10
47.5219041121
 20
-3.5916474037
 10
47.5954700646
 20
-3.7093440247
 10
47.6623674192
 20
-3.8363068207
 10
47.7221158908
 20
-3.971624271
 10
47.7742865196
 20
-4.1143248735
 10
47.8185047501
 20
-4.2633841189
 10
47.8544531207
 20
-4.417731847
 10
47.8818735424
 20
-4.5762599288
 10
47.9005691523
 20
-4.7378302229
 10
47.9104057265
 20
-4.9012827468
 10
47.911312644
 20
-5.0654440044
 10
47.9032833938
 20
-5.2291354113
 10
47.8863756211
 20
-5.3911817564
 10
47.8607107143
 20
-5.5504196392
 10
47.8264729327
 20
-5.7057058225
 10
47.7839080841
 20
-5.8559254399
 10
47.7333217598
 20
-6.0
  0
SPLINE
  5
15F
330
1F
100
AcDbEntity
  8
0
  6
Continuous
 62
     7
370
    25
100
AcDbSpline
210
0.0
220
0.0
230
1.0
 70
     8
 71
     3
 72
    22
 73
    18
 74
     0
 42
0.00000001
 43
0.00000001
 40
0.0
 40
0.0
 40
0.0
 40
0.0
 40
0.125
 40
0.125
 40
0.25
 40
0.25
 40
0.375
 40
0.375
 40
0.5
 40
0.5
 40
0.625
 40
0.625
 40
0.75
 40
0.75
 40
0.875
 40
0.875
 40
1.0
 40
1.0
 40
1.0
 40
1.0
 10
47.18370230541014
 20
-7.000000000000003
 30
0.0
 10
47.26784300674921
 20
-7.000000000000007
 30
0.0
 10
47.3519816275813
 20
-6.987107824236508
 30
0.0
 10
47.51702955028587
 20
-6.936033297376443
 30
0.0
 10
47.59793477110678
 20
-6.897852209171731
 30
0.0
 10
47.75340651473987
 20
-6.797665920873458
 30
0.0
 10
47.82796919328116
 20
-6.735663198036288
 30
0.0
 10
47.96789006592175
 20
-6.590215251173943
 30
0.0
 10
48.03324480026537
 20
-6.506773623569518
 30
0.0
 10
48.1522377212431
 20
-6.321653501176724
 30
0.0
 10
48.20587296560017
 20
-6.219979583758163
 30
0.0
 10
48.29936510369587
 20
-6.002301348320295
 30
0.0
 10
48.33921968570363
 20
-5.886302412715993
 30
0.0
 10
48.40361819048168
 20
-5.644431316744406
 30
0.0
 10
48.42816052090417
 20
-5.518565136996005
 30
0.0
 10
48.46099059394071
 20
-5.261796151068532
 30
0.0
 10
48.46927752478324
 20
-5.130899693879499
 30
0.0
 10
48.46927752478323
 20
-5.0
 30
0.0
  0
SPLINE
  5
160
330
1F
100
AcDbEntity
  8
0
  6
Continuous
 62
     7
370
    25
100
AcDbSpline
210
0.0
220
0.0
230
1.0
 70
     8
 71
     3
 72
    10
 73
     6
 74
     0
 42
0.00000001
 43
0.00000001
 40
0.0
 40
0.0
 40
0.0
 40
0.0
 40
0.3583911235529514
 40
0.7167822471059071
 40
0.9999999999999999
 40
0.9999999999999999
 40
0.9999999999999999
 40
0.9999999999999999
 10
47.18370230541017
 20
-3.0
 30
0.0
 10
47.23975082235615
 20
-3.00349094737224
 30
0.0
 10
47.35184785624811
 20
-3.010472842116722
 30
0.0
 10
47.50631566537166
 20
-3.057253625851941
 30
0.0
 10
47.60063573278833
 20
-3.110915152011377
 30
0.0
 10
47.6422703150505
 20
-3.134602319402051
 30
0.0
  0
LWPOLYLINE
  5
161
330
1F
100
AcDbEntity
  8
0
  6
Continuous
 62
     7
370
    25
100
AcDbPolyline
 90
       36
 70
   128
 43
0.0
 10
45.1827129514
 20
-5.0
 10
45.1872322657
 20
-4.9218813585
 10
45.2006449542
 20
-4.8462735145
 10
45.2225199221
 20
-4.7756065661
 10
45.2521540898
 20
-4.7121518074
 10
45.2885949909
 20
-4.6579487264
 10
45.3306713847
 20
-4.6147394548
 10
45.3770309015
 20
-4.5839127741
 10
45.4261835081
 20
-4.5664594792
 10
45.4765493993
 20
-4.5629405334
 10
45.526509774
 20
-4.5734690384
 10
45.5744588646
 20
-4.5977065995
 10
45.6188555479
 20
-4.6348742015
 10
45.658272878
 20
-4.6837772471
 10
45.6914439494
 20
-4.7428439521
 10
45.7173026165
 20
-4.8101758641
 10
45.7350177607
 20
-4.8836088801
 10
45.7440200025
 20
-4.9607828024
 10
45.7440200025
 20
-5.0392171976
 10
45.7350177607
 20
-5.1163911199
 10
45.7173026165
 20
-5.1898241359
 10
45.6914439494
 20
-5.2571560479
 10
45.658272878
 20
-5.3162227529
 10
45.6188555479
 20
-5.3651257985
 10
45.5744588646
 20
-5.4022934005
 10
45.526509774
 20
-5.4265309616
 10
45.4765493993
 20
-5.4370594666
 10
45.4261835081
 20
-5.4335405208
 10
45.3770309015
 20
-5.4160872259
 10
45.3306713847
 20
-5.3852605452
 10
45.2885949909
 20
-5.3420512736
 10
45.2521540898
 20
-5.2878481926
 10
45.2225199221
 20
-5.2243934339
 10
45.2006449542
 20
-5.1537264855
 10
45.1872322657
 20
-5.0781186415
 10
45.1827129514
 20
-5.0
  0
SPLINE
  5
162
330
1F
100
AcDbEntity
  8
0
  6
Continuous
 62
     7
370
    25
100
AcDbSpline
210
0.0
220
0.0
230
1.0
 70
    11
 71
     3
 72
    71
 73
    67
 74
     0
 42
0.00000001
 43
0.00000001
 40
0.0
 40
0.0
 40
0.0
 40
0.0
 40
0.0156244154855505
 40
0.0312499943588855
 40
0.046873831057168
 40
0.062499994358811
 40
0.0781238310589339
 40
0.0937499943587398
 40
0.1093738310605066
 40
0.1249999943586634
 40
0.1406238310610378
 40
0.1562499943585827
 40
0.1718738310614271
 40
0.1874999943585046
 40
0.2031238310616582
 40
0.2187499943584222
 40
0.2343738310608264
 40
0.2499999943583339
 40
0.2656238310598464
 40
0.2812499943582497
 40
0.2968738310607165
 40
0.3124999943581797
 40
0.3281238310601879
 40
0.3437499943580818
 40
0.359373831060503
 40
0.3749999943580202
 40
0.3906238310638243
 40
0.4062499943579512
 40
0.4218738310625336
 40
0.4374999943578445
 40
0.4531238310599011
 40
0.4687499943577631
 40
0.4843738310601848
 40
0.4999999943576848
 40
0.5156238310601905
 40
0.5312499943576006
 40
0.546873831060862
 40
0.5624999943575285
 40
0.5781238310647288
 40
0.5937499943574756
 40
0.609373831063669
 40
0.6249999943573558
 40
0.6406238310601483
 40
0.6562499943572788
 40
0.6718738310599269
 40
0.6874999943571909
 40
0.7031238310597391
 40
0.7187499943571144
 40
0.7343738310590147
 40
0.7499999943570216
 40
0.7656238310595173
 40
0.7812499943569564
 40
0.7968738310602654
 40
0.8124999943568659
 40
0.8281238310589559
 40
0.8437499943567811
 40
0.8593738310602519
 40
0.8749999943567153
 40
0.8906238310606375
 40
0.906249994356622
 40
0.9218738310593768
 40
0.9374999943565406
 40
0.9531238310590773
 40
0.9687499943564564
 40
0.9843744155720655
 40
1.0
 40
1.0
 40
1.0
 40
1.0
 10
-44.51507200494062
 20
-5.000000000000001
 30
0.0
 10
-44.51507218977626
 20
-4.950913338295421
 30
0.0
 10
-44.51815033294363
 20
-4.852736439023195
 30
0.0
 10
-44.53208832946196
 20
-4.706902783450157
 30
0.0
 10
-44.55508391481877
 20
-4.563866387239318
 30
0.0
 10
-44.5870423390542
 20
-4.425065383875246
 30
0.0
 10
-44.62753340876898
 20
-4.291754951020446
 30
0.0
 10
-44.67628367893717
 20
-4.16532058939313
 30
0.0
 10
-44.73271405935012
 20
-4.046860981934848
 30
0.0
 10
-44.79638268645756
 20
-3.937652054673203
 30
0.0
 10
-44.86658380133612
 20
-3.838595611299347
 30
0.0
 10
-44.94272403262956
 20
-3.750808955588369
 30
0.0
 10
-45.02399809333413
 20
-3.674962360034989
 30
0.0
 10
-45.1096839022013
 20
-3.611971567777497
 30
0.0
 10
-45.19890759221828
 20
-3.56224956218922
 30
0.0
 10
-45.29084612105916
 20
-3.526475334202357
 30
0.0
 10
-45.38459062402266
 20
-3.504788707369829
 30
0.0
 10
-45.47924872673222
 20
-3.497605827171321
 30
0.0
 10
-45.57391149396816
 20
-3.504787983999521
 30
0.0
 10
-45.66765151274788
 20
-3.526472485649172
 30
0.0
 10
-45.75959470719965
 20
-3.562247419878919
 30
0.0
 10
-45.84881426569466
 20
-3.611965980139738
 30
0.0
 10
-45.93450456195689
 20
-3.674958881116016
 30
0.0
 10
-46.01577500257191
 20
-3.750800843595111
 30
0.0
 10
-46.09191937062061
 20
-3.83859092945341
 30
0.0
 10
-46.16211751590068
 20
-3.937641730080909
 30
0.0
 10
-46.22578977037005
 20
-4.046855277059303
 30
0.0
 10
-46.2822179449551
 20
-4.165308449100307
 30
0.0
 10
-46.33097119680741
 20
-4.291748441830063
 30
0.0
 10
-46.37146089759654
 20
-4.425051896305159
 30
0.0
 10
-46.40342158671593
 20
-4.563859316779586
 30
0.0
 10
-46.42641681721204
 20
-4.706890276703886
 30
0.0
 10
-46.44035671223749
 20
-4.852730833604583
 30
0.0
 10
-46.44497377862975
 20
-4.999992699398538
 30
0.0
 10
-46.44035717720981
 20
-5.147261821904018
 30
0.0
 10
-46.42641864822656
 20
-5.29309540265229
 30
0.0
 10
-46.40342296376672
 20
-5.436133620975616
 30
0.0
 10
-46.37146448925477
 20
-5.574934613962672
 30
0.0
 10
-46.33097343301304
 20
-5.708245049589115
 30
0.0
 10
-46.28222315922846
 20
-5.834679410479655
 30
0.0
 10
-46.22579277978591
 20
-5.953139018113927
 30
0.0
 10
-46.16212415242209
 20
-6.062347945326998
 30
0.0
 10
-46.09192303761871
 20
-6.161404388704618
 30
0.0
 10
-46.01578280630707
 20
-6.249191044411428
 30
0.0
 10
-45.93450874560762
 20
-6.325037639963565
 30
0.0
 10
-45.84882293674079
 20
-6.388028432221583
 30
0.0
 10
-45.75959924672395
 20
-6.437750437811025
 30
0.0
 10
-45.66766071788386
 20
-6.473524665796905
 30
0.0
 10
-45.57391621491915
 20
-6.495211292629488
 30
0.0
 10
-45.47925811220767
 20
-6.502394172828316
 30
0.0
 10
-45.38459534497051
 20
-6.495212016003062
 30
0.0
 10
-45.29085532618934
 20
-6.473527514349707
 30
0.0
 10
-45.19891213174002
 20
-6.437752580117445
 30
0.0
 10
-45.10969257324468
 20
-6.388034019859254
 30
0.0
 10
-45.0240022769822
 20
-6.325041118885702
 30
0.0
 10
-44.94273183637099
 20
-6.249199156401982
 30
0.0
 10
-44.86658746830419
 20
-6.161409070547021
 30
0.0
 10
-44.79638932309579
 20
-6.062358269910046
 30
0.0
 10
-44.73271706837067
 20
-5.95314472298506
 30
0.0
 10
-44.67628889475296
 20
-5.834691550751632
 30
0.0
 10
-44.6275356392855
 20
-5.708251558765773
 30
0.0
 10
-44.58704595197372
 20
-5.574948101500494
 30
0.0
 10
-44.55508521256461
 20
-5.436140691421319
 30
0.0
 10
-44.53208988301169
 20
-5.293107909093942
 30
0.0
 10
-44.5181494552638
 20
-5.147267427080035
 30
0.0
 10
-44.51507182009116
 20
-5.04909033412864
 30
0.0
 10
-44.51507200494062
 20
-5.0
 30
0.0
  0
SPLINE
  5
163
330
1F
100
AcDbEntity
  8
0
  6
Continuous
 62
     7
370
    25
100
AcDbSpline
210
0.0
220
0.0
230
1.0
 70
     8
 71
     3
 72
    10
 73
     6
 74
     0
 42
0.00000001
 43
0.00000001
 40
0.0
 40
0.0
 40
0.0
 40
0.0
 40
0.4594985835179441
 40
0.9189971670358836
 40
1.0
 40
1.0
 40
1.0
 40
1.0
 10
-45.57500897486029
 20
-2.999999999999997
 30
0.0
 10
-45.51903316123607
 20
-3.003850019492261
 30
0.0
 10
-45.40708153398761
 20
-3.011550058476784
 30
0.0
 10
-45.28581150123427
 20
-3.04413004366158
 30
0.0
 10
-45.22353902151441
 20
-3.077910141068209
 30
0.0
 10
-45.21420648857521
 20
-3.082972632126142
 30
0.0
  0
LWPOLYLINE
  5
165
330
1F
100
AcDbEntity
  8
0
  6
Continuous
 62
     7
370
    25
100
AcDbPolyline
 90
       20
 70
   128
 43
0.0
 10
-45.4792534195
 20
-4.5625
 10
-45.4918702882
 20
-4.5629405334
 10
-45.5418306629
 20
-4.5734690384
 10
-45.5897797535
 20
-4.5977065995
 10
-45.6341764368
 20
-4.6348742015
 10
-45.6735937668
 20
-4.6837772471
 10
-45.7067648382
 20
-4.7428439521
 10
-45.7326235054
 20
-4.8101758641
 10
-45.7503386496
 20
-4.8836088801
 10
-45.7593408914
 20
-4.9607828024
 10
-45.7593408914
 20
-5.0392171976
 10
-45.7503386496
 20
-5.1163911199
 10
-45.7326235054
 20
-5.1898241359
 10
-45.7067648382
 20
-5.2571560479
 10
-45.6735937668
 20
-5.3162227529
 10
-45.6341764368
 20
-5.3651257985
 10
-45.5897797535
 20
-5.4022934005
 10
-45.5418306629
 20
-5.4265309616
 10
-45.4918702882
 20
-5.4370594666
 10
-45.4792534195
 20
-5.4375
  0
LWPOLYLINE
  5
167
330
1F
100
AcDbEntity
  8
0
  6
Continuous
 62
     7
370
    25
100
AcDbPolyline
 90
       26
 70
   128
 43
0.0
 10
-46.6666223063
 20
-3.0625
 10
-46.7648524561
 20
-3.0685361489
 10
-46.8696013541
 20
-3.0884065135
 10
-46.9728929781
 20
-3.1220010306
 10
-47.0739857531
 20
-3.1690785109
 10
-47.1721538906
 20
-3.2293009649
 10
-47.2666925991
 20
-3.3022360296
 10
-47.3569231447
 20
-3.3873600728
 10
-47.4421977233
 20
-3.4840619523
 10
-47.5219041121
 20
-3.5916474037
 10
-47.5954700646
 20
-3.7093440247
 10
-47.6623674192
 20
-3.8363068207
 10
-47.7221158908
 20
-3.971624271
 10
-47.7742865196
 20
-4.1143248735
 10
-47.8185047501
 20
-4.2633841189
 10
-47.8544531207
 20
-4.417731847
 10
-47.8818735424
 20
-4.5762599288
 10
-47.9005691523
 20
-4.7378302229
 10
-47.9104057265
 20
-4.9012827468
 10
-47.911312644
 20
-5.0654440044
 10
-47.9032833938
 20
-5.2291354113
 10
-47.8863756211
 20
-5.3911817564
 10
-47.8607107143
 20
-5.5504196392
 10
-47.8264729327
 20
-5.7057058225
 10
-47.7839080841
 20
-5.8559254399
 10
-47.7333217598
 20
-6.0
  0
LWPOLYLINE
  5
168
330
1F
100
AcDbEntity
  8
0
  6
Continuous
 62
     7
370
    25
100
AcDbPolyline
 90
       22
 70
   128
 43
0.0
 10
-46.5790436747
 20
-3.2167449862
 10
-46.5976205582
 20
-3.2293009649
 10
-46.6921592668
 20
-3.3022360296
 10
-46.7823898123
 20
-3.3873600728
 10
-46.867664391
 20
-3.4840619523
 10
-46.9473707798
 20
-3.5916474037
 10
-47.0209367323
 20
-3.7093440247
 10
-47.0878340868
 20
-3.8363068207
 10
-47.1475825585
 20
-3.971624271
 10
-47.1997531873
 20
-4.1143248735
 10
-47.2439714178
 20
-4.2633841189
 10
-47.2799197883
 20
-4.417731847
 10
-47.3073402101
 20
-4.5762599288
 10
-47.3260358199
 20
-4.7378302229
 10
-47.3358723942
 20
-4.9012827468
 10
-47.3367793117
 20
-5.0654440044
 10
-47.3287500614
 20
-5.2291354113
 10
-47.3118422888
 20
-5.3911817564
 10
-47.286177382
 20
-5.5504196392
 10
-47.2519396003
 20
-5.7057058225
 10
-47.2093747517
 20
-5.8559254399
 10
-47.1587884275
 20
-6.0
  0
LWPOLYLINE
  5
16B
330
1F
100
AcDbEntity
  8
0
  6
Continuous
 62
     7
370
    25
100
AcDbPolyline
 90
        3
 70
   128
 43
0.0
 10
-46.7545346357
 20
-6.999559041
 10
-46.7546059167
 20
-6.9995613669
 10
-46.7815289728
 20
-7.0
  0
SPLINE
  5
16C
330
1F
100
AcDbEntity
  8
0
  6
Continuous
 62
     7
370
    25
100
AcDbSpline
210
0.0
220
0.0
230
1.0
 70
     8
 71
     3
 72
    10
 73
     6
 74
     0
 42
0.00000001
 43
0.00000001
 40
0.0
 40
0.0
 40
0.0
 40
0.0
 40
0.2832177528920575
 40
0.6416088764460307
 40
1.0
 40
1.0
 40
1.0
 40
1.0
 10
-47.64227031504925
 20
-6.865397680598615
 30
0.0
 10
-47.6006357327875
 20
-6.889084847989047
 30
0.0
 10
-47.50631566537123
 20
-6.942746374148226
 30
0.0
 10
-47.3518478562481
 20
-6.98952715788327
 30
0.0
 10
-47.23975082235615
 20
-6.996509052627756
 30
0.0
 10
-47.18370230541016
 20
-7.000000000000003
 30
0.0
  0
LWPOLYLINE
  5
16D
330
1F
100
AcDbEntity
  8
0
  6
Continuous
 62
     7
370
    25
100
AcDbPolyline
 90
       13
 70
   128
 43
0.0
 10
-47.1837023054
 20
-3.0
 10
-47.3515035436
 20
-3.0171102773
 10
-47.5164336561
 20
-3.0681483474
 10
-47.6756706429
 20
-3.152240935
 10
-47.8264899151
 20
-3.2679491924
 10
-47.9663109131
 20
-3.4132933194
 10
-48.0927412608
 20
-3.5857864376
 10
-48.2036176999
 20
-3.782477142
 10
-48.2970431039
 20
-4.0
 10
-48.3714189381
 20
-4.2346331353
 10
-48.4254726114
 20
-4.4823619098
 10
-48.4582792506
 20
-4.7389476156
 10
-48.4692775248
 20
-5.0
  0
LWPOLYLINE
  5
16E
330
1F
100
AcDbEntity
  8
0
  6
Continuous
 62
     7
370
    25
100
AcDbPolyline
 90
       36
 70
   128
 43
0.0
 10
-45.1827129514
 20
-5.0
 10
-45.1872322657
 20
-4.9218813585
 10
-45.2006449542
 20
-4.8462735145
 10
-45.2225199221
 20
-4.7756065661
 10
-45.2521540898
 20
-4.7121518074
 10
-45.2885949909
 20
-4.6579487264
 10
-45.3306713847
 20
-4.6147394548
 10
-45.3770309015
 20
-4.5839127741
 10
-45.4261835081
 20
-4.5664594792
 10
-45.4765493993
 20
-4.5629405334
 10
-45.526509774
 20
-4.5734690384
 10
-45.5744588646
 20
-4.5977065995
 10
-45.6188555479
 20
-4.6348742015
 10
-45.658272878
 20
-4.6837772471
 10
-45.6914439494
 20
-4.7428439521
 10
-45.7173026165
 20
-4.8101758641
 10
-45.7350177607
 20
-4.8836088801
 10
-45.7440200025
 20
-4.9607828024
 10
-45.7440200025
 20
-5.0392171976
 10
-45.7350177607
 20
-5.1163911199
 10
-45.7173026165
 20
-5.1898241359
 10
-45.6914439494
 20
-5.2571560479
 10
-45.658272878
 20
-5.3162227529
 10
-45.6188555479
 20
-5.3651257985
 10
-45.5744588646
 20
-5.4022934005
 10
-45.526509774
 20
-5.4265309616
 10
-45.4765493993
 20
-5.4370594666
 10
-45.4261835081
 20
-5.4335405208
 10
-45.3770309015
 20
-5.4160872259
 10
-45.3306713847
 20
-5.3852605452
 10
-45.2885949909
 20
-5.3420512736
 10
-45.2521540898
 20
-5.2878481926
 10
-45.2225199221
 20
-5.2243934339
 10
-45.2006449542
 20
-5.1537264855
 10
-45.1872322657
 20
-5.0781186415
 10
-45.1827129514
 20
-5.0
  0
SPLINE
  5
1AD
330
1F
100
AcDbEntity
  8
0
  6
Continuous
 62
     7
370
    25
100
AcDbSpline
210
0.0
220
0.0
230
1.0
 70
     8
 71
     3
 72
    38
 73
    34
 74
     0
 42
0.00000001
 43
0.00000001
 40
0.0
 40
0.0
 40
0.0
 40
0.0
 40
0.0624999999999997
 40
0.0624999999999997
 40
0.1249999999999994
 40
0.1249999999999994
 40
0.1874999999999992
 40
0.1874999999999992
 40
0.2499999999999989
 40
0.2499999999999989
 40
0.3124999999999986
 40
0.3124999999999986
 40
0.3749999999999983
 40
0.3749999999999983
 40
0.4374999999999981
 40
0.4374999999999981
 40
0.4999999999999978
 40
0.4999999999999978
 40
0.562499999999998
 40
0.562499999999998
 40
0.6249999999999983
 40
0.6249999999999983
 40
0.6874999999999986
 40
0.6874999999999986
 40
0.7499999999999989
 40
0.7499999999999989
 40
0.8124999999999991
 40
0.8124999999999991
 40
0.8749999999999994
 40
0.8749999999999994
 40
0.9374999999999997
 40
0.9374999999999997
 40
1.0
 40
1.0
 40
1.0
 40
1.0
 10
45.57500897484724
 20
-3.0
 30
0.0
 10
45.65914967618526
 20
-2.999999999998669
 30
0.0
 10
45.74328829701232
 20
-3.01289217575885
 30
0.0
 10
45.90833621973118
 20
-3.063966702620807
 30
0.0
 10
45.98924144054304
 20
-3.102147790820596
 30
0.0
 10
46.14471318418279
 20
-3.202334079120664
 30
0.0
 10
46.21927586271894
 20
-3.264336801952155
 30
0.0
 10
46.35919673536666
 20
-3.409784748819333
 30
0.0
 10
46.42455146970501
 20
-3.493226376415604
 30
0.0
 10
46.54354439068987
 20
-3.678346498816662
 30
0.0
 10
46.59717963504265
 20
-3.780020416225582
 30
0.0
 10
46.69067177314369
 20
-3.997698651672764
 30
0.0
 10
46.73052635514854
 20
-4.113697587266725
 30
0.0
 10
46.79492485993073
 20
-4.355568683249418
 30
0.0
 10
46.81946719035145
 20
-4.481434862985912
 30
0.0
 10
46.85229726339071
 20
-4.738203848927106
 30
0.0
 10
46.8605841942329
 20
-4.869100306105158
 30
0.0
 10
46.86058419423378
 20
-5.13089969387446
 30
0.0
 10
46.85229726339246
 20
-5.261796151052636
 30
0.0
 10
46.81946719035488
 20
-5.518565136994353
 30
0.0
 10
46.79492485993497
 20
-5.644431316731232
 30
0.0
 10
46.73052635515433
 20
-5.886302412714948
 30
0.0
 10
46.69067177315043
 20
-6.00230134830922
 30
0.0
 10
46.5971796350505
 20
-6.219979583758525
 30
0.0
 10
46.54354439069964
 20
-6.321653501166277
 30
0.0
 10
46.42455146971379
 20
-6.506773623572634
 30
0.0
 10
46.35919673537682
 20
-6.590215251168466
 30
0.0
 10
46.21927586273053
 20
-6.735663198037394
 30
0.0
 10
46.1447131841938
 20
-6.797665920870839
 30
0.0
 10
45.98924144055635
 20
-6.897852209172299
 30
0.0
 10
45.9083362197443
 20
-6.936033297373768
 30
0.0
 10
45.7432882970249
 20
-6.987107824238624
 30
0.0
 10
45.65914967620087
 20
-6.99999999999999
 30
0.0
 10
45.57500897486036
 20
-6.999999999999998
 30
0.0
  0
LWPOLYLINE
  5
1AE
330
1F
100
AcDbEntity
  8
0
  6
Continuous
 62
     7
370
    25
100
AcDbPolyline
 90
       39
 70
   128
 43
0.0
 10
46.0018782195
 20
-3.0003690585
 10
46.0041053635
 20
-3.0004386331
 10
46.1115615096
 20
-3.0109562093
 10
46.2180750821
 20
-3.0354254985
 10
46.3228989649
 20
-3.0736748664
 10
46.4252978937
 20
-3.125436021
 10
46.5245536137
 20
-3.1903458951
 10
46.6199699172
 20
-3.2679491924
 10
46.7108775275
 20
-3.3577015817
 10
46.796638793
 20
-3.4589735144
 10
46.87665216
 20
-3.5710546407
 10
46.9503563922
 20
-3.693158792
 10
47.0172345075
 20
-3.8244294954
 10
47.0768174039
 20
-3.9639459813
 10
47.1286871502
 20
-4.1107296416
 10
47.1724799173
 20
-4.2637508946
 10
47.2078885305
 20
-4.4219364061
 10
47.2346646239
 20
-4.5841766184
 10
47.2526203823
 20
-4.7493335329
 10
47.261629859
 20
-4.9162486925
 10
47.261629859
 20
-5.0837513075
 10
47.2526203823
 20
-5.2506664671
 10
47.2346646239
 20
-5.4158233816
 10
47.2078885305
 20
-5.5780635939
 10
47.1724799173
 20
-5.7362491054
 10
47.1286871502
 20
-5.8892703584
 10
47.0768174039
 20
-6.0360540187
 10
47.0172345075
 20
-6.1755705046
 10
46.9503563922
 20
-6.306841208
 10
46.87665216
 20
-6.4289453593
 10
46.796638793
 20
-6.5410264856
 10
46.7108775275
 20
-6.6422984183
 10
46.6199699172
 20
-6.7320508076
 10
46.5245536137
 20
-6.8096541049
 10
46.4252978937
 20
-6.874563979
 10
46.3228989649
 20
-6.9263251336
 10
46.2180750821
 20
-6.9645745015
 10
46.1115615096
 20
-6.9890437907
 10
46.0041766446
 20
-6.999559041
  0
LWPOLYLINE
  5
1AF
330
1F
100
AcDbEntity
  8
0
  6
Continuous
 62
     7
370
    25
100
AcDbPolyline
 90
       20
 70
   128
 43
0.0
 10
48.0671041921
 20
-5.0
 10
48.0625954989
 20
-4.8326443133
 10
48.0491010444
 20
-4.6664625066
 10
48.0267154826
 20
-4.5026202257
 10
47.9955958321
 20
-4.3422667065
 10
47.9559603749
 20
-4.1865267138
 10
47.9080871252
 20
-4.0364926518
 10
47.8523118795
 20
-3.8932169015
 10
47.7890258611
 20
-3.7577044394
 10
47.7186729759
 20
-3.6309057881
 10
47.6417466988
 20
-3.513710349
 10
47.5587866125
 20
-3.406940164
 10
47.4703746223
 20
-3.311344149
 10
47.3771308748
 20
-3.2275928415
 10
47.2797094078
 20
-3.1562736968
 10
47.1787935631
 20
-3.0978869674
 10
47.0750911927
 20
-3.0528421943
 10
46.9693296943
 20
-3.0214553341
 10
46.8622509087
 20
-3.0039465431
 10
46.7815289728
 20
-3.0
  0
LWPOLYLINE
  5
1B0
330
1F
100
AcDbEntity
  8
0
  6
Continuous
 62
     7
370
    25
100
AcDbPolyline
 90
       20
 70
   128
 43
0.0
 10
46.8123830533
 20
-6.9994239068
 10
46.8622509087
 20
-6.9960534569
 10
46.9693296943
 20
-6.9785446659
 10
47.0750911927
 20
-6.9471578057
 10
47.1787935631
 20
-6.9021130326
 10
47.2797094078
 20
-6.8437263032
 10
47.3771308748
 20
-6.7724071585
 10
47.4703746223
 20
-6.688655851
 10
47.5587866125
 20
-6.593059836
 10
47.6417466988
 20
-6.486289651
 10
47.7186729759
 20
-6.3690942119
 10
47.7890258611
 20
-6.2422955606
 10
47.8523118795
 20
-6.1067830985
 10
47.9080871252
 20
-5.9635073482
 10
47.9559603749
 20
-5.8134732862
 10
47.9955958321
 20
-5.6577332935
 10
48.0267154826
 20
-5.4973797743
 10
48.0491010444
 20
-5.3335374934
 10
48.0625954989
 20
-5.1673556867
 10
48.0671041921
 20
-5.0
  0
LWPOLYLINE
  5
1B1
330
1F
100
AcDbEntity
  8
0
  6
Continuous
 62
     7
370
    25
100
AcDbPolyline
 90
       22
 70
   128
 43
0.0
 10
47.9262209869
 20
-5.0
 10
47.921699961
 20
-5.1633331176
 10
47.9081703556
 20
-5.3254569739
 10
47.885732339
 20
-5.4851712607
 10
47.8545520346
 20
-5.6412935092
 10
47.8148602903
 20
-5.792667845
 10
47.7669509699
 20
-5.9381735453
 10
47.7111787774
 20
-6.076733337
 10
47.6479566304
 20
-6.2073213717
 10
47.5777526038
 20
-6.3289708214
 10
47.5010864634
 20
-6.4407810361
 10
47.4185258186
 20
-6.5419242121
 10
47.3306819195
 20
-6.6316515207
 10
47.2382051316
 20
-6.7092986523
 10
47.1417801207
 20
-6.7742907348
 10
47.0421207839
 20
-6.8261465894
 10
46.9399649639
 20
-6.8644822935
 10
46.8360689868
 20
-6.8890140231
 10
46.7312020621
 20
-6.8995601538
 10
46.6261405876
 20
-6.8960426056
 10
46.5216624019
 20
-6.8784874214
 10
46.4679933012
 20
-6.8639029931
  0
LWPOLYLINE
  5
1B2
330
1F
100
AcDbEntity
  8
0
  6
Continuous
 62
     7
370
    25
100
AcDbPolyline
 90
       12
 70
   128
 43
0.0
 10
47.4619502731
 20
-3.5090377059
 10
47.5010864634
 20
-3.5592189639
 10
47.5777526038
 20
-3.6710291786
 10
47.6479566304
 20
-3.7926786283
 10
47.7111787774
 20
-3.923266663
 10
47.7669509699
 20
-4.0618264547
 10
47.8148602903
 20
-4.207332155
 10
47.8545520346
 20
-4.3587064908
 10
47.885732339
 20
-4.5148287393
 10
47.9081703556
 20
-4.6745430261
 10
47.921699961
 20
-4.8366668824
 10
47.9262209869
 20
-5.0
  0
SPLINE
  5
1B3
330
1F
100
AcDbEntity
  8
0
  6
Continuous
 62
     7
370
    25
100
AcDbSpline
210
0.0
220
0.0
230
1.0
 70
     8
 71
     3
 72
    17
 73
    13
 74
     0
 42
0.00000001
 43
0.00000001
 40
0.0
 40
0.0
 40
0.0
 40
0.0
 40
0.0227750232047709
 40
0.1313555761820188
 40
0.2399361291592655
 40
0.3485166821365133
 40
0.4570972351137611
 40
0.5656777880910094
 40
0.6742583410682563
 40
0.7828388940455051
 40
0.8914194470227526
 40
1.0
 40
1.0
 40
1.0
 40
1.0
 10
47.6422703150505
 20
-3.134602319402051
 30
0.0
 10
47.65344603505758
 20
-3.140309775142196
 30
0.0
 10
47.71790230926551
 20
-3.173227683964471
 30
0.0
 10
47.82793266124179
 20
-3.264723927210838
 30
0.0
 10
47.96865539421007
 20
-3.40829248479571
 30
0.0
 10
48.09531124024141
 20
-3.581866050111497
 30
0.0
 10
48.20654720934978
 20
-3.778961940519727
 30
0.0
 10
48.30020612173197
 20
-3.997149039704934
 30
0.0
 10
48.37488692690038
 20
-4.232441900660539
 30
0.0
 10
48.42875979922236
 20
-4.48088216927183
 30
0.0
 10
48.46290954484925
 20
-4.738200881021887
 30
0.0
 10
48.46715486480525
 20
-4.912733627007295
 30
0.0
 10
48.46927752478323
 20
-5.0
 30
0.0
  0
SPLINE
  5
1B4
330
1F
100
AcDbEntity
  8
0
  6
Continuous
 62
     7
370
    25
100
AcDbSpline
210
0.0
220
0.0
230
1.0
 70
     8
 71
     3
 72
    38
 73
    34
 74
     0
 42
0.00000001
 43
0.00000001
 40
0.0
 40
0.0
 40
0.0
 40
0.0
 40
0.0624999999999999
 40
0.0624999999999999
 40
0.1249999999999998
 40
0.1249999999999998
 40
0.1874999999999997
 40
0.1874999999999997
 40
0.2499999999999996
 40
0.2499999999999996
 40
0.3124999999999994
 40
0.3124999999999994
 40
0.3749999999999993
 40
0.3749999999999993
 40
0.4374999999999992
 40
0.4374999999999992
 40
0.4999999999999991
 40
0.4999999999999991
 40
0.5624999999999992
 40
0.5624999999999992
 40
0.6249999999999993
 40
0.6249999999999993
 40
0.6874999999999994
 40
0.6874999999999994
 40
0.7499999999999996
 40
0.7499999999999996
 40
0.8124999999999997
 40
0.8124999999999997
 40
0.8749999999999998
 40
0.8749999999999998
 40
0.9374999999999999
 40
0.9374999999999999
 40
1.0
 40
1.0
 40
1.0
 40
1.0
 10
-45.57500897486032
 20
-7.000000000000003
 30
0.0
 10
-45.65914967621096
 20
-6.999999999999998
 30
0.0
 10
-45.74328829701694
 20
-6.987107824241067
 30
0.0
 10
-45.90833621975194
 20
-6.936033297371424
 30
0.0
 10
-45.9892414405458
 20
-6.897852209179039
 30
0.0
 10
-46.14471318420372
 20
-6.797665920864445
 30
0.0
 10
-46.21927586272253
 20
-6.735663198045646
 30
0.0
 10
-46.35919673538412
 20
-6.590215251160939
 30
0.0
 10
-46.42455146970762
 20
-6.506773623582136
 30
0.0
 10
-46.543544390705
 20
-6.321653501157976
 30
0.0
 10
-46.59717963504447
 20
-6.219979583772439
 30
0.0
 10
-46.69067177315569
 20
-6.002301348297055
 30
0.0
 10
-46.73052635515014
 20
-5.886302412730544
 30
0.0
 10
-46.79492485993856
 20
-5.644431316717944
 30
0.0
 10
-46.81946719035263
 20
-5.518565137011352
 30
0.0
 10
-46.85229726339433
 20
-5.261796151038478
 30
0.0
 10
-46.86058419423371
 20
-5.130899693891379
 30
0.0
 10
-46.860584194233
 20
-4.869100306091524
 30
0.0
 10
-46.85229726339288
 20
-4.738203848944533
 30
0.0
 10
-46.81946719034979
 20
-4.4814348629721
 30
0.0
 10
-46.79492485993502
 20
-4.355568683265827
 30
0.0
 10
-46.73052635514528
 20
-4.113697587254088
 30
0.0
 10
-46.69067177315019
 20
-3.997698651688106
 30
0.0
 10
-46.59717963503778
 20
-3.780020416213966
 30
0.0
 10
-46.54354439069775
 20
-3.678346498829147
 30
0.0
 10
-46.42455146969935
 20
-3.493226376406565
 30
0.0
 10
-46.3591967353754
 20
-3.40978474882863
 30
0.0
 10
-46.21927586271301
 20
-3.264336801945783
 30
0.0
 10
-46.14471318419385
 20
-3.202334079127976
 30
0.0
 10
-45.98924144053537
 20
-3.102147790815452
 30
0.0
 10
-45.90833621974129
 20
-3.063966702624144
 30
0.0
 10
-45.74328829700602
 20
-3.012892175756695
 30
0.0
 10
-45.65914967619997
 20
-2.999999999998883
 30
0.0
 10
-45.57500897484933
 20
-2.999999999999997
 30
0.0
  0
LWPOLYLINE
  5
1B5
330
1F
100
AcDbEntity
  8
0
  6
Continuous
 62
     7
370
    25
100
AcDbPolyline
 90
       40
 70
   128
 43
0.0
 10
-45.9910768034
 20
-3.0001168163
 10
-46.0041053635
 20
-3.0004386331
 10
-46.1115615096
 20
-3.0109562093
 10
-46.2180750821
 20
-3.0354254985
 10
-46.3228989649
 20
-3.0736748664
 10
-46.4252978937
 20
-3.125436021
 10
-46.5245536137
 20
-3.1903458951
 10
-46.6199699172
 20
-3.2679491924
 10
-46.7108775275
 20
-3.3577015817
 10
-46.796638793
 20
-3.4589735144
 10
-46.87665216
 20
-3.5710546407
 10
-46.9503563922
 20
-3.693158792
 10
-47.0172345075
 20
-3.8244294954
 10
-47.0768174039
 20
-3.9639459813
 10
-47.1286871502
 20
-4.1107296416
 10
-47.1724799173
 20
-4.2637508946
 10
-47.2078885305
 20
-4.4219364061
 10
-47.2346646239
 20
-4.5841766184
 10
-47.2526203823
 20
-4.7493335329
 10
-47.261629859
 20
-4.9162486925
 10
-47.261629859
 20
-5.0837513075
 10
-47.2526203823
 20
-5.2506664671
 10
-47.2346646239
 20
-5.4158233816
 10
-47.2078885305
 20
-5.5780635939
 10
-47.1724799173
 20
-5.7362491054
 10
-47.1286871502
 20
-5.8892703584
 10
-47.0768174039
 20
-6.0360540187
 10
-47.0172345075
 20
-6.1755705046
 10
-46.9503563922
 20
-6.306841208
 10
-46.87665216
 20
-6.4289453593
 10
-46.796638793
 20
-6.5410264856
 10
-46.7108775275
 20
-6.6422984183
 10
-46.6199699172
 20
-6.7320508076
 10
-46.5245536137
 20
-6.8096541049
 10
-46.4252978937
 20
-6.874563979
 10
-46.3228989649
 20
-6.9263251336
 10
-46.2180750821
 20
-6.9645745015
 10
-46.1115615096
 20
-6.9890437907
 10
-46.0041053635
 20
-6.9995613669
 10
-45.9771823075
 20
-7.0
  0
LWPOLYLINE
  5
1B6
330
1F
100
AcDbEntity
  8
0
  6
Continuous
 62
     7
370
    25
100
AcDbPolyline
 90
       20
 70
   128
 43
0.0
 10
-48.0671041921
 20
-5.0
 10
-48.0625954989
 20
-4.8326443133
 10
-48.0491010444
 20
-4.6664625066
 10
-48.0267154826
 20
-4.5026202257
 10
-47.9955958321
 20
-4.3422667065
 10
-47.9559603749
 20
-4.1865267138
 10
-47.9080871252
 20
-4.0364926518
 10
-47.8523118795
 20
-3.8932169015
 10
-47.7890258611
 20
-3.7577044394
 10
-47.7186729759
 20
-3.6309057881
 10
-47.6417466988
 20
-3.513710349
 10
-47.5587866125
 20
-3.406940164
 10
-47.4703746223
 20
-3.311344149
 10
-47.3771308748
 20
-3.2275928415
 10
-47.2797094078
 20
-3.1562736968
 10
-47.1787935631
 20
-3.0978869674
 10
-47.0750911927
 20
-3.0528421943
 10
-46.9693296943
 20
-3.0214553341
 10
-46.8622509087
 20
-3.0039465431
 10
-46.7815289728
 20
-3.0
  0
LWPOLYLINE
  5
1B7
330
1F
100
AcDbEntity
  8
0
  6
Continuous
 62
     7
370
    25
100
AcDbPolyline
 90
       20
 70
   128
 43
0.0
 10
-46.7815289728
 20
-7.0
 10
-46.8622509087
 20
-6.9960534569
 10
-46.9693296943
 20
-6.9785446659
 10
-47.0750911927
 20
-6.9471578057
 10
-47.1787935631
 20
-6.9021130326
 10
-47.2797094078
 20
-6.8437263032
 10
-47.3771308748
 20
-6.7724071585
 10
-47.4703746223
 20
-6.688655851
 10
-47.5587866125
 20
-6.593059836
 10
-47.6417466988
 20
-6.486289651
 10
-47.7186729759
 20
-6.3690942119
 10
-47.7890258611
 20
-6.2422955606
 10
-47.8523118795
 20
-6.1067830985
 10
-47.9080871252
 20
-5.9635073482
 10
-47.9559603749
 20
-5.8134732862
 10
-47.9955958321
 20
-5.6577332935
 10
-48.0267154826
 20
-5.4973797743
 10
-48.0491010444
 20
-5.3335374934
 10
-48.0625954989
 20
-5.1673556867
 10
-48.0671041921
 20
-5.0
  0
LWPOLYLINE
  5
1B8
330
1F
100
AcDbEntity
  8
0
  6
Continuous
 62
     7
370
    25
100
AcDbPolyline
 90
       22
 70
   128
 43
0.0
 10
-47.9262209869
 20
-5.0
 10
-47.921699961
 20
-5.1633331176
 10
-47.9081703556
 20
-5.3254569739
 10
-47.885732339
 20
-5.4851712607
 10
-47.8545520346
 20
-5.6412935092
 10
-47.8148602903
 20
-5.792667845
 10
-47.7669509699
 20
-5.9381735453
 10
-47.7111787774
 20
-6.076733337
 10
-47.6479566304
 20
-6.2073213717
 10
-47.5777526038
 20
-6.3289708214
 10
-47.5010864634
 20
-6.4407810361
 10
-47.4185258186
 20
-6.5419242121
 10
-47.3306819195
 20
-6.6316515207
 10
-47.2382051316
 20
-6.7092986523
 10
-47.1417801207
 20
-6.7742907348
 10
-47.0421207839
 20
-6.8261465894
 10
-46.9399649639
 20
-6.8644822935
 10
-46.8360689868
 20
-6.8890140231
 10
-46.7312020621
 20
-6.8995601538
 10
-46.6261405876
 20
-6.8960426056
 10
-46.5216624019
 20
-6.8784874214
 10
-46.4675407764
 20
-6.8637636334
  0
LWPOLYLINE
  5
1B9
330
1F
100
AcDbEntity
  8
0
  6
Continuous
 62
     7
370
    25
100
AcDbPolyline
 90
       12
 70
   128
 43
0.0
 10
-47.4619502731
 20
-3.5090377059
 10
-47.5010864634
 20
-3.5592189639
 10
-47.5777526038
 20
-3.6710291786
 10
-47.6479566304
 20
-3.7926786283
 10
-47.7111787774
 20
-3.923266663
 10
-47.7669509699
 20
-4.0618264547
 10
-47.8148602903
 20
-4.207332155
 10
-47.8545520346
 20
-4.3587064908
 10
-47.885732339
 20
-4.5148287393
 10
-47.9081703556
 20
-4.6745430261
 10
-47.921699961
 20
-4.8366668824
 10
-47.9262209869
 20
-5.0
  0
SPLINE
  5
1BA
330
1F
100
AcDbEntity
  8
0
  6
Continuous
 62
     7
370
    25
100
AcDbSpline
210
0.0
220
0.0
230
1.0
 70
     8
 71
     3
 72
    17
 73
    13
 74
     0
 42
0.00000001
 43
0.00000001
 40
0.0
 40
0.0
 40
0.0
 40
0.0
 40
0.1085805529771542
 40
0.2171611059543086
 40
0.3257416589314628
 40
0.4343222119086174
 40
0.5429027648857717
 40
0.6514833178629262
 40
0.7600638708400803
 40
0.8686444238172337
 40
0.9772249767943881
 40
0.9999999999999999
 40
0.9999999999999999
 40
0.9999999999999999
 40
0.9999999999999999
 10
-48.46927752478323
 20
-5.0
 30
0.0
 10
-48.46715486480523
 20
-5.087266372992707
 30
0.0
 10
-48.46290954484925
 20
-5.261799118978112
 30
0.0
 10
-48.42875979922236
 20
-5.519117830728169
 30
0.0
 10
-48.37488692690039
 20
-5.76755809933946
 30
0.0
 10
-48.30020612173195
 20
-6.002850960295072
 30
0.0
 10
-48.2065472093498
 20
-6.221038059480269
 30
0.0
 10
-48.09531124024138
 20
-6.418133949888507
 30
0.0
 10
-47.96865539421007
 20
-6.59170751520428
 30
0.0
 10
-47.82793266124178
 20
-6.735276072789184
 30
0.0
 10
-47.7179023092651
 20
-6.8267723160358
 30
0.0
 10
-47.65344603505675
 20
-6.859690224858261
 30
0.0
 10
-47.64227031504924
 20
-6.865397680598615
 30
0.0
  0
LINE
  5
1BB
330
1F
100
AcDbEntity
  8
0
  6
Continuous
 62
     7
370
    25
100
AcDbLine
 10
23.6875
 20
33.0625
 30
0.0
 11
23.875
 21
33.0625
 31
0.0
  0
LINE
  5
1BC
330
1F
100
AcDbEntity
  8
0
  6
Continuous
 62
     7
370
    25
100
AcDbLine
 10
24.125
 20
33.0625
 30
0.0
 11
24.3125
 21
33.0625
 31
0.0
  0
LINE
  5
1BD
330
1F
100
AcDbEntity
  8
0
  6
Continuous
 62
     7
370
    25
100
AcDbLine
 10
24.3125
 20
33.4375
 30
0.0
 11
24.125
 21
33.4375
 31
0.0
  0
LINE
  5
1BE
330
1F
100
AcDbEntity
  8
0
  6
Continuous
 62
     7
370
    25
100
AcDbLine
 10
23.875
 20
33.4375
 30
0.0
 11
23.6875
 21
33.4375
 31
0.0
  0
LINE
  5
1BF
330
1F
100
AcDbEntity
  8
0
  6
Continuous
 62
     7
370
    25
100
AcDbLine
 10
23.6875
 20
27.0625
 30
0.0
 11
23.875
 21
27.0625
 31
0.0
  0
LINE
  5
1C0
330
1F
100
AcDbEntity
  8
0
  6
Continuous
 62
     7
370
    25
100
AcDbLine
 10
24.125
 20
27.0625
 30
0.0
 11
24.3125
 21
27.0625
 31
0.0
  0
LINE
  5
1C1
330
1F
100
AcDbEntity
  8
0
  6
Continuous
 62
     7
370
    25
100
AcDbLine
 10
24.3125
 20
27.4375
 30
0.0
 11
24.125
 21
27.4375
 31
0.0
  0
LINE
  5
1C2
330
1F
100
AcDbEntity
  8
0
  6
Continuous
 62
     7
370
    25
100
AcDbLine
 10
23.875
 20
27.4375
 30
0.0
 11
23.6875
 21
27.4375
 31
0.0
  0
LINE
  5
1C3
330
1F
100
AcDbEntity
  8
0
  6
Continuous
 62
     7
370
    25
100
AcDbLine
 10
23.6875
 20
21.0625
 30
0.0
 11
23.875
 21
21.0625
 31
0.0
  0
LINE
  5
1C4
330
1F
100
AcDbEntity
  8
0
  6
Continuous
 62
     7
370
    25
100
AcDbLine
 10
24.125
 20
21.0625
 30
0.0
 11
24.3125
 21
21.0625
 31
0.0
  0
LINE
  5
1C5
330
1F
100
AcDbEntity
  8
0
  6
Continuous
 62
     7
370
    25
100
AcDbLine
 10
24.3125
 20
21.4375
 30
0.0
 11
24.125
 21
21.4375
 31
0.0
  0
LINE
  5
1C6
330
1F
100
AcDbEntity
  8
0
  6
Continuous
 62
     7
370
    25
100
AcDbLine
 10
23.875
 20
21.4375
 30
0.0
 11
23.6875
 21
21.4375
 31
0.0
  0
LINE
  5
1C7
330
1F
100
AcDbEntity
  8
0
  6
Continuous
 62
     7
370
    25
100
AcDbLine
 10
-0.3125
 20
33.0625
 30
0.0
 11
-0.125
 21
33.0625
 31
0.0
  0
LINE
  5
1C8
330
1F
100
AcDbEntity
  8
0
  6
Continuous
 62
     7
370
    25
100
AcDbLine
 10
0.125
 20
33.0625
 30
0.0
 11
0.3125
 21
33.0625
 31
0.0
  0
LINE
  5
1C9
330
1F
100
AcDbEntity
  8
0
  6
Continuous
 62
     7
370
    25
100
AcDbLine
 10
0.3125
 20
33.4375
 30
0.0
 11
0.125
 21
33.4375
 31
0.0
  0
LINE
  5
1CA
330
1F
100
AcDbEntity
  8
0
  6
Continuous
 62
     7
370
    25
100
AcDbLine
 10
-0.125
 20
33.4375
 30
0.0
 11
-0.3125
 21
33.4375
 31
0.0
  0
LINE
  5
1CB
330
1F
100
AcDbEntity
  8
0
  6
Continuous
 62
     7
370
    25
100
AcDbLine
 10
-0.3125
 20
27.0625
 30
0.0
 11
-0.125
 21
27.0625
 31
0.0
  0
LINE
  5
1CC
330
1F
100
AcDbEntity
  8
0
  6
Continuous
 62
     7
370
    25
100
AcDbLine
 10
0.125
 20
27.0625
 30
0.0
 11
0.3125
 21
27.0625
 31
0.0
  0
LINE
  5
1CD
330
1F
100
AcDbEntity
  8
0
  6
Continuous
 62
     7
370
    25
100
AcDbLine
 10
0.3125
 20
27.4375
 30
0.0
 11
0.125
 21
27.4375
 31
0.0
  0
LINE
  5
1CE
330
1F
100
AcDbEntity
  8
0
  6
Continuous
 62
     7
370
    25
100
AcDbLine
 10
-0.125
 20
27.4375
 30
0.0
 11
-0.3125
 21
27.4375
 31
0.0
  0
LINE
  5
1CF
330
1F
100
AcDbEntity
  8
0
  6
Continuous
 62
     7
370
    25
100
AcDbLine
 10
23.6875
 20
3.0625
 30
0.0
 11
23.875
 21
3.0625
 31
0.0
  0
LINE
  5
1D0
330
1F
100
AcDbEntity
  8
0
  6
Continuous
 62
     7
370
    25
100
AcDbLine
 10
24.125
 20
3.0625
 30
0.0
 11
24.3125
 21
3.0625
 31
0.0
  0
LINE
  5
1D1
330
1F
100
AcDbEntity
  8
0
  6
Continuous
 62
     7
370
    25
100
AcDbLine
 10
24.3125
 20
3.4375
 30
0.0
 11
24.125
 21
3.4375
 31
0.0
  0
LINE
  5
1D2
330
1F
100
AcDbEntity
  8
0
  6
Continuous
 62
     7
370
    25
100
AcDbLine
 10
23.875
 20
3.4375
 30
0.0
 11
23.6875
 21
3.4375
 31
0.0
  0
LINE
  5
1D3
330
1F
100
AcDbEntity
  8
0
  6
Continuous
 62
     7
370
    25
100
AcDbLine
 10
-0.3125
 20
3.0625
 30
0.0
 11
-0.125
 21
3.0625
 31
0.0
  0
LINE
  5
1D4
330
1F
100
AcDbEntity
  8
0
  6
Continuous
 62
     7
370
    25
100
AcDbLine
 10
0.125
 20
3.0625
 30
0.0
 11
0.3125
 21
3.0625
 31
0.0
  0
LINE
  5
1D5
330
1F
100
AcDbEntity
  8
0
  6
Continuous
 62
     7
370
    25
100
AcDbLine
 10
0.3125
 20
3.4375
 30
0.0
 11
0.125
 21
3.4375
 31
0.0
  0
LINE
  5
1D6
330
1F
100
AcDbEntity
  8
0
  6
Continuous
 62
     7
370
    25
100
AcDbLine
 10
-0.125
 20
3.4375
 30
0.0
 11
-0.3125
 21
3.4375
 31
0.0
  0
LINE
  5
1D7
330
1F
100
AcDbEntity
  8
0
  6
Continuous
 62
     7
370
    25
100
AcDbLine
 10
23.6875
 20
9.0625
 30
0.0
 11
23.875
 21
9.0625
 31
0.0
  0
LINE
  5
1D8
330
1F
100
AcDbEntity
  8
0
  6
Continuous
 62
     7
370
    25
100
AcDbLine
 10
24.125
 20
9.0625
 30
0.0
 11
24.3125
 21
9.0625
 31
0.0
  0
LINE
  5
1D9
330
1F
100
AcDbEntity
  8
0
  6
Continuous
 62
     7
370
    25
100
AcDbLine
 10
24.3125
 20
9.4375
 30
0.0
 11
24.125
 21
9.4375
 31
0.0
  0
LINE
  5
1DA
330
1F
100
AcDbEntity
  8
0
  6
Continuous
 62
     7
370
    25
100
AcDbLine
 10
23.875
 20
9.4375
 30
0.0
 11
23.6875
 21
9.4375
 31
0.0
  0
LINE
  5
1DB
330
1F
100
AcDbEntity
  8
0
  6
Continuous
 62
     7
370
    25
100
AcDbLine
 10
-0.3125
 20
9.0625
 30
0.0
 11
-0.125
 21
9.0625
 31
0.0
  0
LINE
  5
1DC
330
1F
100
AcDbEntity
  8
0
  6
Continuous
 62
     7
370
    25
100
AcDbLine
 10
0.125
 20
9.0625
 30
0.0
 11
0.3125
 21
9.0625
 31
0.0
  0
LINE
  5
1DD
330
1F
100
AcDbEntity
  8
0
  6
Continuous
 62
     7
370
    25
100
AcDbLine
 10
0.3125
 20
9.4375
 30
0.0
 11
0.125
 21
9.4375
 31
0.0
  0
LINE
  5
1DE
330
1F
100
AcDbEntity
  8
0
  6
Continuous
 62
     7
370
    25
100
AcDbLine
 10
-0.125
 20
9.4375
 30
0.0
 11
-0.3125
 21
9.4375
 31
0.0
  0
LINE
  5
1DF
330
1F
100
AcDbEntity
  8
0
  6
Continuous
 62
     7
370
    25
100
AcDbLine
 10
23.6875
 20
15.0625
 30
0.0
 11
23.875
 21
15.0625
 31
0.0
  0
LINE
  5
1E0
330
1F
100
AcDbEntity
  8
0
  6
Continuous
 62
     7
370
    25
100
AcDbLine
 10
24.125
 20
15.0625
 30
0.0
 11
24.3125
 21
15.0625
 31
0.0
  0
LINE
  5
1E1
330
1F
100
AcDbEntity
  8
0
  6
Continuous
 62
     7
370
    25
100
AcDbLine
 10
24.3125
 20
15.4375
 30
0.0
 11
24.125
 21
15.4375
 31
0.0
  0
LINE
  5
1E2
330
1F
100
AcDbEntity
  8
0
  6
Continuous
 62
     7
370
    25
100
AcDbLine
 10
23.875
 20
15.4375
 30
0.0
 11
23.6875
 21
15.4375
 31
0.0
  0
LINE
  5
1E3
330
1F
100
AcDbEntity
  8
0
  6
Continuous
 62
     7
370
    25
100
AcDbLine
 10
-0.3125
 20
15.0625
 30
0.0
 11
-0.125
 21
15.0625
 31
0.0
  0
LINE
  5
1E4
330
1F
100
AcDbEntity
  8
0
  6
Continuous
 62
     7
370
    25
100
AcDbLine
 10
0.125
 20
15.0625
 30
0.0
 11
0.3125
 21
15.0625
 31
0.0
  0
LINE
  5
1E5
330
1F
100
AcDbEntity
  8
0
  6
Continuous
 62
     7
370
    25
100
AcDbLine
 10
0.3125
 20
15.4375
 30
0.0
 11
0.125
 21
15.4375
 31
0.0
  0
LINE
  5
1E6
330
1F
100
AcDbEntity
  8
0
  6
Continuous
 62
     7
370
    25
100
AcDbLine
 10
-0.125
 20
15.4375
 30
0.0
 11
-0.3125
 21
15.4375
 31
0.0
  0
LINE
  5
1E7
330
1F
100
AcDbEntity
  8
0
  6
Continuous
 62
     7
370
    25
100
AcDbLine
 10
-0.3125
 20
21.0625
 30
0.0
 11
-0.125
 21
21.0625
 31
0.0
  0
LINE
  5
1E8
330
1F
100
AcDbEntity
  8
0
  6
Continuous
 62
     7
370
    25
100
AcDbLine
 10
0.125
 20
21.0625
 30
0.0
 11
0.3125
 21
21.0625
 31
0.0
  0
LINE
  5
1E9
330
1F
100
AcDbEntity
  8
0
  6
Continuous
 62
     7
370
    25
100
AcDbLine
 10
0.3125
 20
21.4375
 30
0.0
 11
0.125
 21
21.4375
 31
0.0
  0
LINE
  5
1EA
330
1F
100
AcDbEntity
  8
0
  6
Continuous
 62
     7
370
    25
100
AcDbLine
 10
-0.125
 20
21.4375
 30
0.0
 11
-0.3125
 21
21.4375
 31
0.0
  0
LINE
  5
1EB
330
1F
100
AcDbEntity
  8
0
  6
Continuous
 62
     7
370
    25
100
AcDbLine
 10
45.5750089749
 20
-7.0
 30
0.0
 11
45.9771823075
 21
-7.0
 31
0.0
  0
LINE
  5
1EC
330
1F
100
AcDbEntity
  8
0
  6
Continuous
 62
     7
370
    25
100
AcDbLine
 10
46.6666223063
 20
-3.0625
 30
0.0
 11
46.30389629
 21
-3.0625
 31
0.0
  0
LINE
  5
1ED
330
1F
100
AcDbEntity
  8
0
  6
Continuous
 62
     7
370
    25
100
AcDbLine
 10
46.7815289728
 20
-7.0
 30
0.0
 11
47.1837023054
 21
-7.0
 31
0.0
  0
LINE
  5
1EE
330
1F
100
AcDbEntity
  8
0
  6
Continuous
 62
     7
370
    25
100
AcDbLine
 10
45.4639325306
 20
-5.4375
 30
0.0
 11
45.4792534195
 21
-5.4375
 31
0.0
  0
LINE
  5
1EF
330
1F
100
AcDbEntity
  8
0
  6
Continuous
 62
     7
370
    25
100
AcDbLine
 10
45.4792534195
 20
-4.5625
 30
0.0
 11
45.4639325306
 21
-4.5625
 31
0.0
  0
LINE
  5
1F0
330
1F
100
AcDbEntity
  8
0
  6
Continuous
 62
     7
370
    25
100
AcDbLine
 10
45.0
 20
-3.0
 30
0.0
 11
45.0
 21
-3.2076852624
 31
0.0
  0
LINE
  5
1F1
330
1F
100
AcDbEntity
  8
0
  6
Continuous
 62
     7
370
    25
100
AcDbLine
 10
-45.9771823075
 20
-7.0
 30
0.0
 11
-45.5750089749
 21
-7.0
 31
0.0
  0
LINE
  5
1F2
330
1F
100
AcDbEntity
  8
0
  6
Continuous
 62
     7
370
    25
100
AcDbLine
 10
-46.3030013103
 20
-3.0625
 30
0.0
 11
-46.6666223063
 21
-3.0625
 31
0.0
  0
LINE
  5
1F3
330
1F
100
AcDbEntity
  8
0
  6
Continuous
 62
     7
370
    25
100
AcDbLine
 10
-47.1837023054
 20
-7.0
 30
0.0
 11
-46.7815289728
 21
-7.0
 31
0.0
  0
LINE
  5
1F4
330
1F
100
AcDbEntity
  8
0
  6
Continuous
 62
     7
370
    25
100
AcDbLine
 10
-45.4639325306
 20
-4.5625
 30
0.0
 11
-45.4792534195
 21
-4.5625
 31
0.0
  0
LINE
  5
1F5
330
1F
100
AcDbEntity
  8
0
  6
Continuous
 62
     7
370
    25
100
AcDbLine
 10
-45.4792534195
 20
-5.4375
 30
0.0
 11
-45.4639325306
 21
-5.4375
 31
0.0
  0
LINE
  5
1F6
330
1F
100
AcDbEntity
  8
0
  6
Continuous
 62
     7
370
    25
100
AcDbLine
 10
-45.0
 20
-3.2071832558
 30
0.0
 11
-45.0
 21
-3.0
 31
0.0
  0
LINE
  5
1F7
330
1F
100
AcDbEntity
  8
0
  6
Continuous
 62
     7
370
    25
100
AcDbLine
 10
47.875
 20
33.4375
 30
0.0
 11
47.6875
 21
33.4375
 31
0.0
  0
LINE
  5
1F8
330
1F
100
AcDbEntity
  8
0
  6
Continuous
 62
     7
370
    25
100
AcDbLine
 10
47.6875
 20
33.0625
 30
0.0
 11
47.875
 21
33.0625
 31
0.0
  0
LINE
  5
1F9
330
1F
100
AcDbEntity
  8
0
  6
Continuous
 62
     7
370
    25
100
AcDbLine
 10
47.875
 20
27.4375
 30
0.0
 11
47.6875
 21
27.4375
 31
0.0
  0
LINE
  5
1FA
330
1F
100
AcDbEntity
  8
0
  6
Continuous
 62
     7
370
    25
100
AcDbLine
 10
47.6875
 20
27.0625
 30
0.0
 11
47.875
 21
27.0625
 31
0.0
  0
LINE
  5
1FB
330
1F
100
AcDbEntity
  8
0
  6
Continuous
 62
     7
370
    25
100
AcDbLine
 10
47.875
 20
21.4375
 30
0.0
 11
47.6875
 21
21.4375
 31
0.0
  0
LINE
  5
1FC
330
1F
100
AcDbEntity
  8
0
  6
Continuous
 62
     7
370
    25
100
AcDbLine
 10
47.6875
 20
21.0625
 30
0.0
 11
47.875
 21
21.0625
 31
0.0
  0
LINE
  5
1FD
330
1F
100
AcDbEntity
  8
0
  6
Continuous
 62
     7
370
    25
100
AcDbLine
 10
47.875
 20
15.4375
 30
0.0
 11
47.6875
 21
15.4375
 31
0.0
  0
LINE
  5
1FE
330
1F
100
AcDbEntity
  8
0
  6
Continuous
 62
     7
370
    25
100
AcDbLine
 10
47.6875
 20
15.0625
 30
0.0
 11
47.875
 21
15.0625
 31
0.0
  0
LINE
  5
1FF
330
1F
100
AcDbEntity
  8
0
  6
Continuous
 62
     7
370
    25
100
AcDbLine
 10
47.875
 20
9.4375
 30
0.0
 11
47.6875
 21
9.4375
 31
0.0
  0
LINE
  5
200
330
1F
100
AcDbEntity
  8
0
  6
Continuous
 62
     7
370
    25
100
AcDbLine
 10
47.6875
 20
9.0625
 30
0.0
 11
47.875
 21
9.0625
 31
0.0
  0
LINE
  5
201
330
1F
100
AcDbEntity
  8
0
  6
Continuous
 62
     7
370
    25
100
AcDbLine
 10
-47.875
 20
33.0625
 30
0.0
 11
-47.6875
 21
33.0625
 31
0.0
  0
LINE
  5
202
330
1F
100
AcDbEntity
  8
0
  6
Continuous
 62
     7
370
    25
100
AcDbLine
 10
-47.6875
 20
33.4375
 30
0.0
 11
-47.875
 21
33.4375
 31
0.0
  0
LINE
  5
203
330
1F
100
AcDbEntity
  8
0
  6
Continuous
 62
     7
370
    25
100
AcDbLine
 10
-47.875
 20
27.0625
 30
0.0
 11
-47.6875
 21
27.0625
 31
0.0
  0
LINE
  5
204
330
1F
100
AcDbEntity
  8
0
  6
Continuous
 62
     7
370
    25
100
AcDbLine
 10
-47.6875
 20
27.4375
 30
0.0
 11
-47.875
 21
27.4375
 31
0.0
  0
LINE
  5
205
330
1F
100
AcDbEntity
  8
0
  6
Continuous
 62
     7
370
    25
100
AcDbLine
 10
-47.875
 20
21.0625
 30
0.0
 11
-47.6875
 21
21.0625
 31
0.0
  0
LINE
  5
206
330
1F
100
AcDbEntity
  8
0
  6
Continuous
 62
     7
370
    25
100
AcDbLine
 10
-47.6875
 20
21.4375
 30
0.0
 11
-47.875
 21
21.4375
 31
0.0
  0
LINE
  5
207
330
1F
100
AcDbEntity
  8
0
  6
Continuous
 62
     7
370
    25
100
AcDbLine
 10
-47.875
 20
15.0625
 30
0.0
 11
-47.6875
 21
15.0625
 31
0.0
  0
LINE
  5
208
330
1F
100
AcDbEntity
  8
0
  6
Continuous
 62
     7
370
    25
100
AcDbLine
 10
-47.6875
 20
15.4375
 30
0.0
 11
-47.875
 21
15.4375
 31
0.0
  0
LINE
  5
209
330
1F
100
AcDbEntity
  8
0
  6
Continuous
 62
     7
370
    25
100
AcDbLine
 10
-47.875
 20
9.0625
 30
0.0
 11
-47.6875
 21
9.0625
 31
0.0
  0
LINE
  5
20A
330
1F
100
AcDbEntity
  8
0
  6
Continuous
 62
     7
370
    25
100
AcDbLine
 10
-47.6875
 20
9.4375
 30
0.0
 11
-47.875
 21
9.4375
 31
0.0
  0
LINE
  5
20B
330
1F
100
AcDbEntity
  8
0
  6
Continuous
 62
     7
370
    25
100
AcDbLine
 10
-24.3125
 20
33.0625
 30
0.0
 11
-24.125
 21
33.0625
 31
0.0
  0
LINE
  5
20C
330
1F
100
AcDbEntity
  8
0
  6
Continuous
 62
     7
370
    25
100
AcDbLine
 10
-23.875
 20
33.0625
 30
0.0
 11
-23.6875
 21
33.0625
 31
0.0
  0
LINE
  5
20D
330
1F
100
AcDbEntity
  8
0
  6
Continuous
 62
     7
370
    25
100
AcDbLine
 10
-23.6875
 20
33.4375
 30
0.0
 11
-23.875
 21
33.4375
 31
0.0
  0
LINE
  5
20E
330
1F
100
AcDbEntity
  8
0
  6
Continuous
 62
     7
370
    25
100
AcDbLine
 10
-24.125
 20
33.4375
 30
0.0
 11
-24.3125
 21
33.4375
 31
0.0
  0
LINE
  5
20F
330
1F
100
AcDbEntity
  8
0
  6
Continuous
 62
     7
370
    25
100
AcDbLine
 10
-24.3125
 20
27.0625
 30
0.0
 11
-24.125
 21
27.0625
 31
0.0
  0
LINE
  5
210
330
1F
100
AcDbEntity
  8
0
  6
Continuous
 62
     7
370
    25
100
AcDbLine
 10
-23.875
 20
27.0625
 30
0.0
 11
-23.6875
 21
27.0625
 31
0.0
  0
LINE
  5
211
330
1F
100
AcDbEntity
  8
0
  6
Continuous
 62
     7
370
    25
100
AcDbLine
 10
-23.6875
 20
27.4375
 30
0.0
 11
-23.875
 21
27.4375
 31
0.0
  0
LINE
  5
212
330
1F
100
AcDbEntity
  8
0
  6
Continuous
 62
     7
370
    25
100
AcDbLine
 10
-24.125
 20
27.4375
 30
0.0
 11
-24.3125
 21
27.4375
 31
0.0
  0
LINE
  5
213
330
1F
100
AcDbEntity
  8
0
  6
Continuous
 62
     7
370
    25
100
AcDbLine
 10
-24.3125
 20
21.0625
 30
0.0
 11
-24.125
 21
21.0625
 31
0.0
  0
LINE
  5
214
330
1F
100
AcDbEntity
  8
0
  6
Continuous
 62
     7
370
    25
100
AcDbLine
 10
-23.875
 20
21.0625
 30
0.0
 11
-23.6875
 21
21.0625
 31
0.0
  0
LINE
  5
215
330
1F
100
AcDbEntity
  8
0
  6
Continuous
 62
     7
370
    25
100
AcDbLine
 10
-23.6875
 20
21.4375
 30
0.0
 11
-23.875
 21
21.4375
 31
0.0
  0
LINE
  5
216
330
1F
100
AcDbEntity
  8
0
  6
Continuous
 62
     7
370
    25
100
AcDbLine
 10
-24.125
 20
21.4375
 30
0.0
 11
-24.3125
 21
21.4375
 31
0.0
  0
LINE
  5
217
330
1F
100
AcDbEntity
  8
0
  6
Continuous
 62
     7
370
    25
100
AcDbLine
 10
-24.3125
 20
15.0625
 30
0.0
 11
-24.125
 21
15.0625
 31
0.0
  0
LINE
  5
218
330
1F
100
AcDbEntity
  8
0
  6
Continuous
 62
     7
370
    25
100
AcDbLine
 10
-23.875
 20
15.0625
 30
0.0
 11
-23.6875
 21
15.0625
 31
0.0
  0
LINE
  5
219
330
1F
100
AcDbEntity
  8
0
  6
Continuous
 62
     7
370
    25
100
AcDbLine
 10
-23.6875
 20
15.4375
 30
0.0
 11
-23.875
 21
15.4375
 31
0.0
  0
LINE
  5
21A
330
1F
100
AcDbEntity
  8
0
  6
Continuous
 62
     7
370
    25
100
AcDbLine
 10
-24.125
 20
15.4375
 30
0.0
 11
-24.3125
 21
15.4375
 31
0.0
  0
LINE
  5
21B
330
1F
100
AcDbEntity
  8
0
  6
Continuous
 62
     7
370
    25
100
AcDbLine
 10
-24.3125
 20
9.0625
 30
0.0
 11
-24.125
 21
9.0625
 31
0.0
  0
LINE
  5
21C
330
1F
100
AcDbEntity
  8
0
  6
Continuous
 62
     7
370
    25
100
AcDbLine
 10
-23.875
 20
9.0625
 30
0.0
 11
-23.6875
 21
9.0625
 31
0.0
  0
LINE
  5
21D
330
1F
100
AcDbEntity
  8
0
  6
Continuous
 62
     7
370
    25
100
AcDbLine
 10
-23.6875
 20
9.4375
 30
0.0
 11
-23.875
 21
9.4375
 31
0.0
  0
LINE
  5
21E
330
1F
100
AcDbEntity
  8
0
  6
Continuous
 62
     7
370
    25
100
AcDbLine
 10
-24.125
 20
9.4375
 30
0.0
 11
-24.3125
 21
9.4375
 31
0.0
  0
LINE
  5
21F
330
1F
100
AcDbEntity
  8
0
  6
Continuous
 62
     7
370
    25
100
AcDbLine
 10
-24.3125
 20
3.0625
 30
0.0
 11
-24.125
 21
3.0625
 31
0.0
  0
LINE
  5
220
330
1F
100
AcDbEntity
  8
0
  6
Continuous
 62
     7
370
    25
100
AcDbLine
 10
-23.875
 20
3.0625
 30
0.0
 11
-23.6875
 21
3.0625
 31
0.0
  0
LINE
  5
221
330
1F
100
AcDbEntity
  8
0
  6
Continuous
 62
     7
370
    25
100
AcDbLine
 10
-23.6875
 20
3.4375
 30
0.0
 11
-23.875
 21
3.4375
 31
0.0
  0
LINE
  5
222
330
1F
100
AcDbEntity
  8
0
  6
Continuous
 62
     7
370
    25
100
AcDbLine
 10
-24.125
 20
3.4375
 30
0.0
 11
-24.3125
 21
3.4375
 31
0.0
  0
LINE
  5
223
330
1F
100
AcDbEntity
  8
0
  6
Continuous
 62
     7
370
    25
100
AcDbLine
 10
47.875
 20
3.4375
 30
0.0
 11
47.6875
 21
3.4375
 31
0.0
  0
LINE
  5
224
330
1F
100
AcDbEntity
  8
0
  6
Continuous
 62
     7
370
    25
100
AcDbLine
 10
47.6875
 20
3.0625
 30
0.0
 11
47.875
 21
3.0625
 31
0.0
  0
LINE
  5
225
330
1F
100
AcDbEntity
  8
0
  6
Continuous
 62
     7
370
    25
100
AcDbLine
 10
-47.875
 20
3.0625
 30
0.0
 11
-47.6875
 21
3.0625
 31
0.0
  0
LINE
  5
226
330
1F
100
AcDbEntity
  8
0
  6
Continuous
 62
     7
370
    25
100
AcDbLine
 10
-47.6875
 20
3.4375
 30
0.0
 11
-47.875
 21
3.4375
 31
0.0
  0
LINE
  5
227
330
1F
100
AcDbEntity
  8
0
  6
Continuous
 62
     7
370
    25
100
AcDbLine
 10
47.6875
 20
24.5
 30
0.0
 11
24.3125
 21
24.5
 31
0.0
  0
LINE
  5
228
330
1F
100
AcDbEntity
  8
0
  6
Continuous
 62
     7
370
    25
100
AcDbLine
 10
47.6875
 20
36.0
 30
0.0
 11
24.3125
 21
36.0
 31
0.0
  0
LINE
  5
229
330
1F
100
AcDbEntity
  8
0
  6
Continuous
 62
     7
370
    25
100
AcDbLine
 10
47.6875
 20
24.25
 30
0.0
 11
24.3125
 21
24.25
 31
0.0
  0
LINE
  5
22A
330
1F
100
AcDbEntity
  8
0
  6
Continuous
 62
     7
370
    25
100
AcDbLine
 10
47.6875
 20
24.0
 30
0.0
 11
24.3125
 21
24.0
 31
0.0
  0
LINE
  5
22B
330
1F
100
AcDbEntity
  8
0
  6
Continuous
 62
     7
370
    25
100
AcDbLine
 10
47.6875
 20
12.5
 30
0.0
 11
24.3125
 21
12.5
 31
0.0
  0
LINE
  5
22C
330
1F
100
AcDbEntity
  8
0
  6
Continuous
 62
     7
370
    25
100
AcDbLine
 10
47.6875
 20
12.25
 30
0.0
 11
24.3125
 21
12.25
 31
0.0
  0
LINE
  5
22D
330
1F
100
AcDbEntity
  8
0
  6
Continuous
 62
     7
370
    25
100
AcDbLine
 10
47.6875
 20
12.0
 30
0.0
 11
24.3125
 21
12.0
 31
0.0
  0
LINE
  5
22E
330
1F
100
AcDbEntity
  8
0
  6
Continuous
 62
     7
370
    25
100
AcDbLine
 10
47.6875
 20
0.5
 30
0.0
 11
24.3125
 21
0.5
 31
0.0
  0
LINE
  5
22F
330
1F
100
AcDbEntity
  8
0
  6
Continuous
 62
     7
370
    25
100
AcDbLine
 10
24.3125
 20
36.191
 30
0.0
 11
24.3125
 21
0.25
 31
0.0
  0
LINE
  5
230
330
1F
100
AcDbEntity
  8
0
  6
Continuous
 62
     7
370
    25
100
AcDbLine
 10
47.6875
 20
36.191
 30
0.0
 11
47.6875
 21
0.25
 31
0.0
  0
LINE
  5
231
330
1F
100
AcDbEntity
  8
0
  6
Continuous
 62
     7
370
    25
100
AcDbLine
 10
23.6875
 20
24.5
 30
0.0
 11
0.3125
 21
24.5
 31
0.0
  0
LINE
  5
232
330
1F
100
AcDbEntity
  8
0
  6
Continuous
 62
     7
370
    25
100
AcDbLine
 10
23.6875
 20
36.0
 30
0.0
 11
0.3125
 21
36.0
 31
0.0
  0
LINE
  5
233
330
1F
100
AcDbEntity
  8
0
  6
Continuous
 62
     7
370
    25
100
AcDbLine
 10
23.6875
 20
24.25
 30
0.0
 11
0.3125
 21
24.25
 31
0.0
  0
LINE
  5
234
330
1F
100
AcDbEntity
  8
0
  6
Continuous
 62
     7
370
    25
100
AcDbLine
 10
23.6875
 20
24.0
 30
0.0
 11
0.3125
 21
24.0
 31
0.0
  0
LINE
  5
235
330
1F
100
AcDbEntity
  8
0
  6
Continuous
 62
     7
370
    25
100
AcDbLine
 10
23.6875
 20
12.5
 30
0.0
 11
0.3125
 21
12.5
 31
0.0
  0
LINE
  5
236
330
1F
100
AcDbEntity
  8
0
  6
Continuous
 62
     7
370
    25
100
AcDbLine
 10
23.6875
 20
12.25
 30
0.0
 11
0.3125
 21
12.25
 31
0.0
  0
LINE
  5
237
330
1F
100
AcDbEntity
  8
0
  6
Continuous
 62
     7
370
    25
100
AcDbLine
 10
23.6875
 20
0.5
 30
0.0
 11
0.3125
 21
0.5
 31
0.0
  0
LINE
  5
238
330
1F
100
AcDbEntity
  8
0
  6
Continuous
 62
     7
370
    25
100
AcDbLine
 10
23.6875
 20
36.191
 30
0.0
 11
23.6875
 21
0.25
 31
0.0
  0
LINE
  5
239
330
1F
100
AcDbEntity
  8
0
  6
Continuous
 62
     7
370
    25
100
AcDbLine
 10
23.6875
 20
12.0
 30
0.0
 11
0.3125
 21
12.0
 31
0.0
  0
LINE
  5
23A
330
1F
100
AcDbEntity
  8
0
  6
Continuous
 62
     7
370
    25
100
AcDbLine
 10
0.3125
 20
36.191
 30
0.0
 11
0.3125
 21
0.25
 31
0.0
  0
LINE
  5
23B
330
1F
100
AcDbEntity
  8
0
  6
Continuous
 62
     7
370
    25
100
AcDbLine
 10
-0.3125
 20
36.0
 30
0.0
 11
-23.6875
 21
36.0
 31
0.0
  0
LINE
  5
23C
330
1F
100
AcDbEntity
  8
0
  6
Continuous
 62
     7
370
    25
100
AcDbLine
 10
-0.3125
 20
24.5
 30
0.0
 11
-23.6875
 21
24.5
 31
0.0
  0
LINE
  5
23D
330
1F
100
AcDbEntity
  8
0
  6
Continuous
 62
     7
370
    25
100
AcDbLine
 10
-0.3125
 20
24.25
 30
0.0
 11
-23.6875
 21
24.25
 31
0.0
  0
LINE
  5
23E
330
1F
100
AcDbEntity
  8
0
  6
Continuous
 62
     7
370
    25
100
AcDbLine
 10
-0.3125
 20
24.0
 30
0.0
 11
-23.6875
 21
24.0
 31
0.0
  0
LINE
  5
23F
330
1F
100
AcDbEntity
  8
0
  6
Continuous
 62
     7
370
    25
100
AcDbLine
 10
-0.3125
 20
12.5
 30
0.0
 11
-23.6875
 21
12.5
 31
0.0
  0
LINE
  5
240
330
1F
100
AcDbEntity
  8
0
  6
Continuous
 62
     7
370
    25
100
AcDbLine
 10
-0.3125
 20
12.25
 30
0.0
 11
-23.6875
 21
12.25
 31
0.0
  0
LINE
  5
241
330
1F
100
AcDbEntity
  8
0
  6
Continuous
 62
     7
370
    25
100
AcDbLine
 10
-0.3125
 20
36.191
 30
0.0
 11
-0.3125
 21
0.25
 31
0.0
  0
LINE
  5
242
330
1F
100
AcDbEntity
  8
0
  6
Continuous
 62
     7
370
    25
100
AcDbLine
 10
-0.3125
 20
0.5
 30
0.0
 11
-23.6875
 21
0.5
 31
0.0
  0
LINE
  5
243
330
1F
100
AcDbEntity
  8
0
  6
Continuous
 62
     7
370
    25
100
AcDbLine
 10
-0.3125
 20
12.0
 30
0.0
 11
-23.6875
 21
12.0
 31
0.0
  0
LINE
  5
244
330
1F
100
AcDbEntity
  8
0
  6
Continuous
 62
     7
370
    25
100
AcDbLine
 10
-23.6875
 20
36.191
 30
0.0
 11
-23.6875
 21
0.25
 31
0.0
  0
LINE
  5
245
330
1F
100
AcDbEntity
  8
0
  6
Continuous
 62
     7
370
    25
100
AcDbLine
 10
-24.3125
 20
36.0
 30
0.0
 11
-47.6875
 21
36.0
 31
0.0
  0
LINE
  5
246
330
1F
100
AcDbEntity
  8
0
  6
Continuous
 62
     7
370
    25
100
AcDbLine
 10
-24.3125
 20
24.5
 30
0.0
 11
-47.6875
 21
24.5
 31
0.0
  0
LINE
  5
247
330
1F
100
AcDbEntity
  8
0
  6
Continuous
 62
     7
370
    25
100
AcDbLine
 10
-24.3125
 20
24.25
 30
0.0
 11
-47.6875
 21
24.25
 31
0.0
  0
LINE
  5
248
330
1F
100
AcDbEntity
  8
0
  6
Continuous
 62
     7
370
    25
100
AcDbLine
 10
-24.3125
 20
24.0
 30
0.0
 11
-47.6875
 21
24.0
 31
0.0
  0
LINE
  5
249
330
1F
100
AcDbEntity
  8
0
  6
Continuous
 62
     7
370
    25
100
AcDbLine
 10
-24.3125
 20
12.5
 30
0.0
 11
-47.6875
 21
12.5
 31
0.0
  0
LINE
  5
24A
330
1F
100
AcDbEntity
  8
0
  6
Continuous
 62
     7
370
    25
100
AcDbLine
 10
-24.3125
 20
12.25
 30
0.0
 11
-47.6875
 21
12.25
 31
0.0
  0
LINE
  5
24B
330
1F
100
AcDbEntity
  8
0
  6
Continuous
 62
     7
370
    25
100
AcDbLine
 10
24.125
 20
36.191
 30
0.0
 11
24.125
 21
0.25
 31
0.0
  0
LINE
  5
24C
330
1F
100
AcDbEntity
  8
0
  6
Continuous
 62
     7
370
    25
100
AcDbLine
 10
23.875
 20
36.191
 30
0.0
 11
23.875
 21
0.25
 31
0.0
  0
LINE
  5
24D
330
1F
100
AcDbEntity
  8
0
  6
Continuous
 62
     7
370
    25
100
AcDbLine
 10
0.125
 20
36.191
 30
0.0
 11
0.125
 21
0.25
 31
0.0
  0
LINE
  5
24E
330
1F
100
AcDbEntity
  8
0
  6
Continuous
 62
     7
370
    25
100
AcDbLine
 10
-0.125
 20
36.191
 30
0.0
 11
-0.125
 21
0.25
 31
0.0
  0
LINE
  5
24F
330
1F
100
AcDbEntity
  8
0
  6
Continuous
 62
     7
370
    25
100
AcDbLine
 10
24.3125
 20
35.191
 30
0.0
 11
24.125
 21
35.191
 31
0.0
  0
LINE
  5
250
330
1F
100
AcDbEntity
  8
0
  6
Continuous
 62
     7
370
    25
100
AcDbLine
 10
23.875
 20
35.191
 30
0.0
 11
23.6875
 21
35.191
 31
0.0
  0
LINE
  5
251
330
1F
100
AcDbEntity
  8
0
  6
Continuous
 62
     7
370
    25
100
AcDbLine
 10
23.6875
 20
1.25
 30
0.0
 11
23.875
 21
1.25
 31
0.0
  0
LINE
  5
252
330
1F
100
AcDbEntity
  8
0
  6
Continuous
 62
     7
370
    25
100
AcDbLine
 10
24.125
 20
1.25
 30
0.0
 11
24.3125
 21
1.25
 31
0.0
  0
LINE
  5
253
330
1F
100
AcDbEntity
  8
0
  6
Continuous
 62
     7
370
    25
100
AcDbLine
 10
0.3125
 20
35.191
 30
0.0
 11
0.125
 21
35.191
 31
0.0
  0
LINE
  5
254
330
1F
100
AcDbEntity
  8
0
  6
Continuous
 62
     7
370
    25
100
AcDbLine
 10
-0.125
 20
35.191
 30
0.0
 11
-0.3125
 21
35.191
 31
0.0
  0
LINE
  5
255
330
1F
100
AcDbEntity
  8
0
  6
Continuous
 62
     7
370
    25
100
AcDbLine
 10
-0.3125
 20
1.25
 30
0.0
 11
-0.125
 21
1.25
 31
0.0
  0
LINE
  5
256
330
1F
100
AcDbEntity
  8
0
  6
Continuous
 62
     7
370
    25
100
AcDbLine
 10
0.125
 20
1.25
 30
0.0
 11
0.3125
 21
1.25
 31
0.0
  0
LINE
  5
257
330
1F
100
AcDbEntity
  8
0
  6
Continuous
 62
     7
370
    25
100
AcDbLine
 10
45.9771823075
 20
-3.0
 30
0.0
 11
46.0018782195
 21
-3.0003690585
 31
0.0
  0
LINE
  5
258
330
1F
100
AcDbEntity
  8
0
  6
Continuous
 62
     7
370
    25
100
AcDbLine
 10
47.1217156184
 20
-6.0
 30
0.0
 11
47.7333217598
 21
-6.0
 31
0.0
  0
LINE
  5
259
330
1F
100
AcDbEntity
  8
0
  6
Continuous
 62
     7
370
    25
100
AcDbLine
 10
46.7815289728
 20
-3.0
 30
0.0
 11
46.7676344768
 21
-3.0001168163
 31
0.0
  0
LINE
  5
25A
330
1F
100
AcDbEntity
  8
0
  6
Continuous
 62
     7
370
    25
100
AcDbLine
 10
46.7815289728
 20
-7.0
 30
0.0
 11
46.8123830533
 21
-6.9994239068
 31
0.0
  0
LINE
  5
25B
330
1F
100
AcDbEntity
  8
0
  6
Continuous
 62
     7
370
    25
100
AcDbLine
 10
-45.9771823075
 20
-3.0
 30
0.0
 11
-45.9910768034
 21
-3.0001168163
 31
0.0
  0
LINE
  5
25C
330
1F
100
AcDbEntity
  8
0
  6
Continuous
 62
     7
370
    25
100
AcDbLine
 10
-47.1220202265
 20
-6.0
 30
0.0
 11
-47.7333217598
 21
-6.0
 31
0.0
  0
LINE
  5
25D
330
1F
100
AcDbEntity
  8
0
  6
Continuous
 62
     7
370
    25
100
AcDbLine
 10
-46.7815289728
 20
-3.0
 30
0.0
 11
-46.7568330607
 21
-3.0003690585
 31
0.0
  0
LINE
  5
25E
330
1F
100
AcDbEntity
  8
0
  6
Continuous
 62
     7
370
    25
100
AcDbLine
 10
-24.3125
 20
12.0
 30
0.0
 11
-47.6875
 21
12.0
 31
0.0
  0
LINE
  5
25F
330
1F
100
AcDbEntity
  8
0
  6
Continuous
 62
     7
370
    25
100
AcDbLine
 10
-24.3125
 20
36.191
 30
0.0
 11
-24.3125
 21
0.25
 31
0.0
  0
LINE
  5
260
330
1F
100
AcDbEntity
  8
0
  6
Continuous
 62
     7
370
    25
100
AcDbLine
 10
-24.3125
 20
0.5
 30
0.0
 11
-47.6875
 21
0.5
 31
0.0
  0
LINE
  5
261
330
1F
100
AcDbEntity
  8
0
  6
Continuous
 62
     7
370
    25
100
AcDbLine
 10
-47.6875
 20
36.191
 30
0.0
 11
-47.6875
 21
0.25
 31
0.0
  0
LINE
  5
262
330
1F
100
AcDbEntity
  8
0
  6
Continuous
 62
     7
370
    25
100
AcDbLine
 10
47.875
 20
36.191
 30
0.0
 11
-47.875
 21
36.191
 31
0.0
  0
LINE
  5
263
330
1F
100
AcDbEntity
  8
0
  6
Continuous
 62
     7
370
    25
100
AcDbLine
 10
-23.875
 20
36.191
 30
0.0
 11
-23.875
 21
0.25
 31
0.0
  0
LINE
  5
264
330
1F
100
AcDbEntity
  8
0
  6
Continuous
 62
     7
370
    25
100
AcDbLine
 10
-47.875
 20
0.25
 30
0.0
 11
47.875
 21
0.25
 31
0.0
  0
LINE
  5
265
330
1F
100
AcDbEntity
  8
0
  6
Continuous
 62
     7
370
    25
100
AcDbLine
 10
-24.125
 20
36.191
 30
0.0
 11
-24.125
 21
0.25
 31
0.0
  0
LINE
  5
266
330
1F
100
AcDbEntity
  8
0
  6
Continuous
 62
     7
370
    25
100
AcDbLine
 10
-23.6875
 20
35.191
 30
0.0
 11
-23.875
 21
35.191
 31
0.0
  0
LINE
  5
267
330
1F
100
AcDbEntity
  8
0
  6
Continuous
 62
     7
370
    25
100
AcDbLine
 10
-24.125
 20
35.191
 30
0.0
 11
-24.3125
 21
35.191
 31
0.0
  0
LINE
  5
268
330
1F
100
AcDbEntity
  8
0
  6
Continuous
 62
     7
370
    25
100
AcDbLine
 10
-24.3125
 20
1.25
 30
0.0
 11
-24.125
 21
1.25
 31
0.0
  0
LINE
  5
269
330
1F
100
AcDbEntity
  8
0
  6
Continuous
 62
     7
370
    25
100
AcDbLine
 10
-23.875
 20
1.25
 30
0.0
 11
-23.6875
 21
1.25
 31
0.0
  0
LINE
  5
26A
330
1F
100
AcDbEntity
  8
0
  6
Continuous
 62
     7
370
    25
100
AcDbLine
 10
42.875
 20
-3.0
 30
0.0
 11
42.875
 21
0.0
 31
0.0
  0
LINE
  5
26B
330
1F
100
AcDbEntity
  8
0
  6
Continuous
 62
     7
370
    25
100
AcDbLine
 10
-42.875
 20
-3.0
 30
0.0
 11
-42.875
 21
-0.125
 31
0.0
  0
LINE
  5
26C
330
1F
100
AcDbEntity
  8
0
  6
Continuous
 62
     7
370
    25
100
AcDbLine
 10
-43.2104219012
 20
-0.125
 30
0.0
 11
43.2104219012
 21
-0.125
 31
0.0
  0
LINE
  5
26D
330
1F
100
AcDbEntity
  8
0
  6
Continuous
 62
     7
370
    25
100
AcDbLine
 10
-42.875
 20
-0.75
 30
0.0
 11
42.875
 21
-0.75
 31
0.0
  0
LINE
  5
26E
330
1F
100
AcDbEntity
  8
0
  6
Continuous
 62
     7
370
    25
100
AcDbLine
 10
46.375
 20
-3.0
 30
0.0
 11
46.375
 21
0.0
 31
0.0
  0
LINE
  5
26F
330
1F
100
AcDbEntity
  8
0
  6
Continuous
 62
     7
370
    25
100
AcDbLine
 10
48.375
 20
-3.0
 30
0.0
 11
42.875
 21
-3.0
 31
0.0
  0
LINE
  5
270
330
1F
100
AcDbEntity
  8
0
  6
Continuous
 62
     7
370
    25
100
AcDbLine
 10
48.375
 20
-3.0
 30
0.0
 11
48.375
 21
36.441
 31
0.0
  0
LINE
  5
271
330
1F
100
AcDbEntity
  8
0
  6
Continuous
 62
     7
370
    25
100
AcDbLine
 10
-46.375
 20
-3.0
 30
0.0
 11
-46.375
 21
0.0
 31
0.0
  0
LINE
  5
272
330
1F
100
AcDbEntity
  8
0
  6
Continuous
 62
     7
370
    25
100
AcDbLine
 10
-48.375
 20
-3.0
 30
0.0
 11
-42.875
 21
-3.0
 31
0.0
  0
LINE
  5
273
330
1F
100
AcDbEntity
  8
0
  6
Continuous
 62
     7
370
    25
100
AcDbLine
 10
-48.375
 20
36.441
 30
0.0
 11
-48.375
 21
-3.0
 31
0.0
  0
LINE
  5
274
330
1F
100
AcDbEntity
  8
0
  6
Continuous
 62
     7
370
    25
100
AcDbLine
 10
-48.375
 20
0.0
 30
0.0
 11
48.375
 21
0.0
 31
0.0
  0
LINE
  5
275
330
1F
100
AcDbEntity
  8
0
  6
Continuous
 62
     7
370
    25
100
AcDbLine
 10
42.875
 20
-2.0
 30
0.0
 11
-42.875
 21
-2.0
 31
0.0
  0
LINE
  5
276
330
1F
100
AcDbEntity
  8
0
  6
Continuous
 62
     7
370
    25
100
AcDbLine
 10
47.875
 20
0.25
 30
0.0
 11
47.875
 21
36.191
 31
0.0
  0
LINE
  5
277
330
1F
100
AcDbEntity
  8
0
  6
Continuous
 62
     7
370
    25
100
AcDbLine
 10
48.375
 20
36.441
 30
0.0
 11
-48.375
 21
36.441
 31
0.0
  0
LINE
  5
278
330
1F
100
AcDbEntity
  8
0
  6
Continuous
 62
     7
370
    25
100
AcDbLine
 10
-47.875
 20
36.191
 30
0.0
 11
-47.875
 21
0.25
 31
0.0
  0
ARC
  5
279
330
1F
100
AcDbEntity
  8
0
  6
Continuous
 62
     7
370
    25
100
AcDbCircle
 10
43.625
 20
-0.75
 30
0.0
 40
0.75
100
AcDbArc
 50
90.0
 51
180.0
  0
ARC
  5
27A
330
1F
100
AcDbEntity
  8
0
  6
Continuous
 62
     7
370
    25
100
AcDbCircle
 10
-43.625
 20
-0.75
 30
0.0
 40
0.7500000000000004
100
AcDbArc
 50
0.0
 51
90.0
  0
SPLINE
  5
27D
330
1B
100
AcDbEntity
 67
     1
  8
0
  6
Continuous
 62
     7
370
    25
100
AcDbSpline
210
0.0
220
0.0
230
1.0
 70
     8
 71
     3
 72
    15
 73
    11
 74
     0
 42
0.00000001
 43
0.00000001
 40
0.0
 40
0.0
 40
0.0
 40
0.0
 40
0.0201910045972974
 40
0.0769272333174367
 40
0.2039978704683037
 40
0.2957706179129644
 40
0.4127538118935156
 40
0.6408456165993391
 40
0.9548947999240389
 40
1.0
 40
1.0
 40
1.0
 40
1.0
 10
48.47606644234249
 20
-12.29361166273611
 30
0.0
 10
48.47704109316638
 20
-12.28984255510331
 30
0.0
 10
48.48075448894976
 20
-12.27548234727562
 30
0.0
 10
48.4727145418012
 20
-12.23589367313178
 30
0.0
 10
48.45366498318256
 20
-12.18702726445322
 30
0.0
 10
48.42474723774339
 20
-12.12934225225464
 30
0.0
 10
48.38346504612263
 20
-12.05650671657977
 30
0.0
 10
48.31459193454862
 20
-11.95052232379924
 30
0.0
 10
48.25000719943889
 20
-11.85819006131299
 30
0.0
 10
48.20691351242029
 20
-11.80450475903958
 30
0.0
 10
48.2015014961264
 20
-11.79776257124487
 30
0.0
  0
SPLINE
  5
27E
330
1B
100
AcDbEntity
 67
     1
  8
0
  6
Continuous
 62
     7
370
    25
100
AcDbSpline
210
0.0
220
0.0
230
1.0
 70
     8
 71
     3
 72
    10
 73
     6
 74
     0
 42
0.00000001
 43
0.00000001
 40
0.0
 40
0.0
 40
0.0
 40
0.0
 40
0.4375088723182253
 40
0.892492142806098
 40
1.0
 40
1.0
 40
1.0
 40
1.0
 10
48.46927752478323
 20
-12.30410633844049
 30
0.0
 10
48.4705722148894
 20
-12.30279355072219
 30
0.0
 10
48.47321330589405
 20
-12.30011554166251
 30
0.0
 10
48.47553139020618
 20
-12.29639838621004
 30
0.0
 10
48.47598058802036
 20
-12.2940588196364
 30
0.0
 10
48.47606644234249
 20
-12.29361166273611
 30
0.0
  0
SPLINE
  5
27F
330
1B
100
AcDbEntity
 67
     1
  8
0
  6
Continuous
 62
     7
370
    25
100
AcDbSpline
210
0.0
220
0.0
230
1.0
 70
     8
 71
     3
 72
    16
 73
    12
 74
     0
 42
0.00000001
 43
0.00000001
 40
0.0
 40
0.0
 40
0.0
 40
0.0
 40
0.2787621485574867
 40
0.5912236956428562
 40
0.7356822889781448
 40
0.855295357339754
 40
0.9028695223539487
 40
0.941836078348851
 40
0.973246123993536
 40
0.9869743719634577
 40
0.9999999999999999
 40
0.9999999999999999
 40
0.9999999999999999
 40
0.9999999999999999
 10
46.44343483400021
 20
-13.35128654843353
 30
0.0
 10
46.47625615483586
 20
-13.38872856756559
 30
0.0
 10
46.54586654742588
 20
-13.46813895035299
 30
0.0
 10
46.64271690599257
 20
-13.55762233288175
 30
0.0
 10
46.72560455529185
 20
-13.618784524396
 30
0.0
 10
46.7741857625884
 20
-13.64660086378225
 30
0.0
 10
46.8089144150052
 20
-13.65912494838651
 30
0.0
 10
46.82976376350454
 20
-13.66298721419979
 30
0.0
 10
46.84499115644448
 20
-13.66184532940597
 30
0.0
 10
46.85482964970745
 20
-13.65817450962572
 30
0.0
 10
46.85869989330206
 20
-13.65534023750476
 30
0.0
 10
46.86058419423334
 20
-13.65396031878221
 30
0.0
  0
SPLINE
  5
287
330
1B
100
AcDbEntity
 67
     1
  8
0
  6
Continuous
 62
     7
370
    25
100
AcDbSpline
210
0.0
220
0.0
230
1.0
 70
     8
 71
     3
 72
    17
 73
    13
 74
     0
 42
0.00000001
 43
0.00000001
 40
0.0
 40
0.0
 40
0.0
 40
0.0
 40
0.2495948028744449
 40
0.445858375918471
 40
0.5197232445207802
 40
0.6067990674599777
 40
0.7193334269599951
 40
0.891494549278083
 40
0.9560257721076251
 40
0.9799283145450839
 40
0.9902382624471067
 40
1.0
 40
1.0
 40
1.0
 40
1.0
 10
48.2017064152564
 20
11.79729764750283
 30
0.0
 10
48.23114380958355
 20
11.83636365803283
 30
0.0
 10
48.28372867383083
 20
11.90614839636842
 30
0.0
 10
48.34085605703904
 20
11.99051443337465
 30
0.0
 10
48.37829669845915
 20
12.04965536205322
 30
0.0
 10
48.40589285310143
 20
12.09560596892587
 30
0.0
 10
48.44085334627407
 20
12.15952545540556
 30
0.0
 10
48.46955786167876
 20
12.22185666959697
 30
0.0
 10
48.48029574944321
 20
12.27268526065834
 30
0.0
 10
48.47734014181851
 20
12.29212886142911
 30
0.0
 10
48.47345668413903
 20
12.29996892225413
 30
0.0
 10
48.4706449795608
 20
12.30275254236594
 30
0.0
 10
48.46927752478323
 20
12.30410633844049
 30
0.0
  0
SPLINE
  5
288
330
1B
100
AcDbEntity
 67
     1
  8
0
  6
Continuous
 62
     7
370
    25
100
AcDbSpline
210
0.0
220
0.0
230
1.0
 70
     8
 71
     3
 72
    16
 73
    12
 74
     0
 42
0.00000001
 43
0.00000001
 40
0.0
 40
0.0
 40
0.0
 40
0.0
 40
0.0161442534713462
 40
0.0346105818160087
 40
0.0568313743799169
 40
0.0842349629181565
 40
0.1594747670179944
 40
0.2682795429078299
 40
0.4696098668588939
 40
0.7236713992471109
 40
1.0
 40
1.0
 40
1.0
 40
1.0
 10
46.86058419423334
 20
13.65396031878221
 30
0.0
 10
46.85821543700757
 20
13.65563461190641
 30
0.0
 10
46.85313721732336
 20
13.6592240165984
 30
0.0
 10
46.8431820827025
 20
13.66198001341153
 30
0.0
 10
46.83098758246368
 20
13.6626558363188
 30
0.0
 10
46.8087764940726
 20
13.65960463263752
 30
0.0
 10
46.77314074671698
 20
13.64604832398045
 30
0.0
 10
46.71352896478726
 20
13.61138622549995
 30
0.0
 10
46.63378896676577
 20
13.54931503995213
 30
0.0
 10
46.53836299976787
 20
13.45976427682881
 30
0.0
 10
46.47595095903427
 20
13.38844385945274
 30
0.0
 10
46.44343483400021
 20
13.35128654843353
 30
0.0
  0
SPLINE
  5
290
330
1B
100
AcDbEntity
 67
     1
  8
0
  6
Continuous
 62
     7
370
    25
100
AcDbSpline
210
0.0
220
0.0
230
1.0
 70
     8
 71
     3
 72
    16
 73
    12
 74
     0
 42
0.00000001
 43
0.00000001
 40
0.0
 40
0.0
 40
0.0
 40
0.0
 40
0.2787621485574867
 40
0.5912236956428562
 40
0.7356822889781448
 40
0.855295357339754
 40
0.9028695223539487
 40
0.941836078348851
 40
0.973246123993536
 40
0.9869743719634577
 40
0.9999999999999999
 40
0.9999999999999999
 40
0.9999999999999999
 40
0.9999999999999999
 10
-46.44343483400021
 20
13.35128654843353
 30
0.0
 10
-46.47625615483586
 20
13.38872856756559
 30
0.0
 10
-46.54586654742588
 20
13.46813895035299
 30
0.0
 10
-46.64271690599257
 20
13.55762233288175
 30
0.0
 10
-46.72560455529185
 20
13.618784524396
 30
0.0
 10
-46.7741857625884
 20
13.64660086378225
 30
0.0
 10
-46.8089144150052
 20
13.65912494838651
 30
0.0
 10
-46.82976376350454
 20
13.66298721419979
 30
0.0
 10
-46.84499115644448
 20
13.66184532940597
 30
0.0
 10
-46.85482964970745
 20
13.65817450962572
 30
0.0
 10
-46.85869989330206
 20
13.65534023750476
 30
0.0
 10
-46.86058419423334
 20
13.65396031878221
 30
0.0
  0
SPLINE
  5
291
330
1B
100
AcDbEntity
 67
     1
  8
0
  6
Continuous
 62
     7
370
    25
100
AcDbSpline
210
0.0
220
0.0
230
1.0
 70
     8
 71
     3
 72
    15
 73
    11
 74
     0
 42
0.00000001
 43
0.00000001
 40
0.0
 40
0.0
 40
0.0
 40
0.0
 40
0.0201910045972977
 40
0.0769272333174379
 40
0.2039978704683069
 40
0.295770617912969
 40
0.4127538118935219
 40
0.6408456165993489
 40
0.9548947999240536
 40
1.0
 40
1.0
 40
1.0
 40
1.0
 10
-48.47606644234249
 20
12.29361166273611
 30
0.0
 10
-48.47704109316638
 20
12.28984255510331
 30
0.0
 10
-48.48075448894974
 20
12.27548234727562
 30
0.0
 10
-48.4727145418012
 20
12.23589367313177
 30
0.0
 10
-48.45366498318254
 20
12.18702726445322
 30
0.0
 10
-48.4247472377434
 20
12.12934225225464
 30
0.0
 10
-48.38346504612263
 20
12.05650671657977
 30
0.0
 10
-48.31459193454864
 20
11.95052232379924
 30
0.0
 10
-48.25000719943886
 20
11.85819006131299
 30
0.0
 10
-48.2069135124203
 20
11.80450475903959
 30
0.0
 10
-48.20150149612642
 20
11.79776257124488
 30
0.0
  0
SPLINE
  5
292
330
1B
100
AcDbEntity
 67
     1
  8
0
  6
Continuous
 62
     7
370
    25
100
AcDbSpline
210
0.0
220
0.0
230
1.0
 70
     8
 71
     3
 72
    10
 73
     6
 74
     0
 42
0.00000001
 43
0.00000001
 40
0.0
 40
0.0
 40
0.0
 40
0.0
 40
0.4375088723182253
 40
0.892492142806098
 40
1.0
 40
1.0
 40
1.0
 40
1.0
 10
-48.46927752478323
 20
12.30410633844049
 30
0.0
 10
-48.4705722148894
 20
12.30279355072219
 30
0.0
 10
-48.47321330589405
 20
12.30011554166251
 30
0.0
 10
-48.47553139020618
 20
12.29639838621004
 30
0.0
 10
-48.47598058802036
 20
12.2940588196364
 30
0.0
 10
-48.47606644234249
 20
12.29361166273611
 30
0.0
  0
SPLINE
  5
29A
330
1B
100
AcDbEntity
 67
     1
  8
0
  6
Continuous
 62
     7
370
    25
100
AcDbSpline
210
0.0
220
0.0
230
1.0
 70
     8
 71
     3
 72
    17
 73
    13
 74
     0
 42
0.00000001
 43
0.00000001
 40
0.0
 40
0.0
 40
0.0
 40
0.0
 40
0.249594802874456
 40
0.4458583759184793
 40
0.5197232445207873
 40
0.6067990674599836
 40
0.7193334269599994
 40
0.8914945492780846
 40
0.9560257721076257
 40
0.9799283145450842
 40
0.9902382624471068
 40
1.0
 40
1.0
 40
1.0
 40
1.0
 10
-48.20170641525639
 20
-11.79729764750283
 30
0.0
 10
-48.23114380958354
 20
-11.83636365803282
 30
0.0
 10
-48.2837286738308
 20
-11.90614839636841
 30
0.0
 10
-48.34085605703908
 20
-11.99051443337466
 30
0.0
 10
-48.37829669845912
 20
-12.04965536205322
 30
0.0
 10
-48.40589285310142
 20
-12.09560596892587
 30
0.0
 10
-48.44085334627409
 20
-12.15952545540557
 30
0.0
 10
-48.46955786167877
 20
-12.22185666959698
 30
0.0
 10
-48.48029574944321
 20
-12.27268526065834
 30
0.0
 10
-48.4773401418185
 20
-12.29212886142911
 30
0.0
 10
-48.47345668413905
 20
-12.29996892225413
 30
0.0
 10
-48.4706449795608
 20
-12.30275254236594
 30
0.0
 10
-48.46927752478323
 20
-12.30410633844049
 30
0.0
  0
SPLINE
  5
29B
330
1B
100
AcDbEntity
 67
     1
  8
0
  6
Continuous
 62
     7
370
    25
100
AcDbSpline
210
0.0
220
0.0
230
1.0
 70
     8
 71
     3
 72
    16
 73
    12
 74
     0
 42
0.00000001
 43
0.00000001
 40
0.0
 40
0.0
 40
0.0
 40
0.0
 40
0.0161442534713462
 40
0.0346105818160087
 40
0.0568313743799169
 40
0.0842349629181565
 40
0.1594747670179944
 40
0.2682795429078299
 40
0.4696098668588939
 40
0.7236713992471109
 40
1.0
 40
1.0
 40
1.0
 40
1.0
 10
-46.86058419423334
 20
-13.65396031878221
 30
0.0
 10
-46.85821543700757
 20
-13.65563461190641
 30
0.0
 10
-46.85313721732336
 20
-13.6592240165984
 30
0.0
 10
-46.8431820827025
 20
-13.66198001341153
 30
0.0
 10
-46.83098758246368
 20
-13.6626558363188
 30
0.0
 10
-46.8087764940726
 20
-13.65960463263752
 30
0.0
 10
-46.77314074671698
 20
-13.64604832398045
 30
0.0
 10
-46.71352896478726
 20
-13.61138622549995
 30
0.0
 10
-46.63378896676577
 20
-13.54931503995213
 30
0.0
 10
-46.53836299976787
 20
-13.45976427682881
 30
0.0
 10
-46.47595095903427
 20
-13.38844385945274
 30
0.0
 10
-46.44343483400021
 20
-13.35128654843353
 30
0.0
  0
SPLINE
  5
2B9
330
1B
100
AcDbEntity
 67
     1
  8
0
  6
Continuous
 62
     7
370
    25
100
AcDbSpline
210
0.0
220
0.0
230
1.0
 70
    24
 71
     3
 72
    14
 73
    10
 74
     0
 42
0.00000001
 43
0.00000001
 40
0.0
 40
0.0
 40
0.0
 40
0.0
 40
0.0212680965444445
 40
0.1843232045038011
 40
0.347562731598169
 40
0.5106340482721718
 40
0.67368915620544
 40
0.8369286833107783
 40
1.0
 40
1.0
 40
1.0
 40
1.0
 10
46.14867042077211
 20
-13.00000000000001
 30
0.0
 10
46.15281657547385
 20
-13.00494119476125
 30
0.0
 10
46.18874985795613
 20
-13.04776481325324
 30
0.0
 10
46.24570707094009
 20
-13.11564377645098
 30
0.0
 10
46.31682503777155
 20
-13.20039886892041
 30
0.0
 10
46.37258361635318
 20
-13.26684935526301
 30
0.0
 10
46.41307079504666
 20
-13.31510009592495
 30
0.0
 10
46.43866721866631
 20
-13.34560472573125
 30
0.0
 10
46.44184617513042
 20
-13.34939325851806
 30
0.0
 10
46.44343483400021
 20
-13.35128654843353
 30
0.0
  0
SPLINE
  5
2BE
330
1B
100
AcDbEntity
 67
     1
  8
0
  6
Continuous
 62
     7
370
    25
100
AcDbSpline
210
0.0
220
0.0
230
1.0
 70
    24
 71
     3
 72
    14
 73
    10
 74
     0
 42
0.00000001
 43
0.00000001
 40
0.0
 40
0.0
 40
0.0
 40
0.0
 40
0.0212680965444445
 40
0.1843232045038011
 40
0.347562731598169
 40
0.5106340482721718
 40
0.67368915620544
 40
0.8369286833107783
 40
1.0
 40
1.0
 40
1.0
 40
1.0
 10
46.14867042077211
 20
13.00000000000001
 30
0.0
 10
46.15281657547385
 20
13.00494119476125
 30
0.0
 10
46.18874985795613
 20
13.04776481325324
 30
0.0
 10
46.24570707094009
 20
13.11564377645098
 30
0.0
 10
46.31682503777155
 20
13.20039886892041
 30
0.0
 10
46.37258361635318
 20
13.26684935526301
 30
0.0
 10
46.41307079504666
 20
13.31510009592495
 30
0.0
 10
46.43866721866631
 20
13.34560472573125
 30
0.0
 10
46.44184617513042
 20
13.34939325851806
 30
0.0
 10
46.44343483400021
 20
13.35128654843353
 30
0.0
  0
SPLINE
  5
2C3
330
1B
100
AcDbEntity
 67
     1
  8
0
  6
Continuous
 62
     7
370
    25
100
AcDbSpline
210
0.0
220
0.0
230
1.0
 70
    24
 71
     3
 72
    14
 73
    10
 74
     0
 42
0.00000001
 43
0.00000001
 40
0.0
 40
0.0
 40
0.0
 40
0.0
 40
0.0212680965444292
 40
0.1843232045037884
 40
0.3475627315981588
 40
0.5106340482721642
 40
0.6736891562054349
 40
0.8369286833107757
 40
1.0
 40
1.0
 40
1.0
 40
1.0
 10
-46.14867042077212
 20
13.00000000000002
 30
0.0
 10
-46.15281657547385
 20
13.00494119476126
 30
0.0
 10
-46.18874985795615
 20
13.04776481325325
 30
0.0
 10
-46.24570707094005
 20
13.11564377645097
 30
0.0
 10
-46.31682503777157
 20
13.20039886892042
 30
0.0
 10
-46.37258361635318
 20
13.26684935526301
 30
0.0
 10
-46.41307079504666
 20
13.31510009592495
 30
0.0
 10
-46.43866721866631
 20
13.34560472573124
 30
0.0
 10
-46.44184617513044
 20
13.34939325851806
 30
0.0
 10
-46.44343483400021
 20
13.35128654843353
 30
0.0
  0
SPLINE
  5
2C8
330
1B
100
AcDbEntity
 67
     1
  8
0
  6
Continuous
 62
     7
370
    25
100
AcDbSpline
210
0.0
220
0.0
230
1.0
 70
    24
 71
     3
 72
    14
 73
    10
 74
     0
 42
0.00000001
 43
0.00000001
 40
0.0
 40
0.0
 40
0.0
 40
0.0
 40
0.0212680965444629
 40
0.1843232045038165
 40
0.3475627315981812
 40
0.5106340482721811
 40
0.6736891562054461
 40
0.8369286833107814
 40
1.0
 40
1.0
 40
1.0
 40
1.0
 10
-46.14867042077209
 20
-12.99999999999999
 30
0.0
 10
-46.15281657547384
 20
-13.00494119476124
 30
0.0
 10
-46.18874985795618
 20
-13.04776481325323
 30
0.0
 10
-46.24570707094008
 20
-13.11564377645099
 30
0.0
 10
-46.31682503777157
 20
-13.20039886892042
 30
0.0
 10
-46.37258361635317
 20
-13.26684935526301
 30
0.0
 10
-46.41307079504668
 20
-13.31510009592496
 30
0.0
 10
-46.43866721866629
 20
-13.34560472573124
 30
0.0
 10
-46.44184617513044
 20
-13.34939325851806
 30
0.0
 10
-46.44343483400022
 20
-13.35128654843354
 30
0.0
  0
SPLINE
  5
2FF
330
1B
100
AcDbEntity
 67
     1
  8
0
  6
Continuous
 62
     7
370
    25
100
AcDbSpline
210
0.0
220
0.0
230
1.0
 70
    24
 71
     3
 72
    15
 73
    11
 74
     0
 42
0.00000001
 43
0.00000001
 40
0.0
 40
0.0
 40
0.0
 40
0.0
 40
0.136474874734125
 40
0.2729497494682497
 40
0.4094246242023737
 40
0.5458994989364989
 40
0.6823743736706235
 40
0.8188492484047482
 40
0.9553241231388727
 40
1.0
 40
1.0
 40
1.0
 40
1.0
 10
46.86058419423335
 20
-13.65396031878221
 30
0.0
 10
46.8584617547906
 20
-13.65143089395123
 30
0.0
 10
46.85421687590505
 20
-13.64637204428927
 30
0.0
 10
46.82006382224976
 20
-13.6056700198975
 30
0.0
 10
46.76620352043571
 20
-13.54148181171241
 30
0.0
 10
46.69147574126399
 20
-13.45242471241794
 30
0.0
 10
46.59799215438693
 20
-13.34101531190861
 30
0.0
 10
46.48610185726148
 20
-13.20766964833288
 30
0.0
 10
46.38973856453279
 20
-13.0928283480293
 30
0.0
 10
46.32725595752443
 20
-13.01836447665241
 30
0.0
 10
46.31184633193863
 20
-13.00000000000001
 30
0.0
  0
SPLINE
  5
301
330
1B
100
AcDbEntity
 67
     1
  8
0
  6
Continuous
 62
     7
370
    25
100
AcDbSpline
210
0.0
220
0.0
230
1.0
 70
    24
 71
     3
 72
    13
 73
     9
 74
     0
 42
0.00000001
 43
0.00000001
 40
0.0
 40
0.0
 40
0.0
 40
0.0
 40
0.0920690804766808
 40
0.2736552643813456
 40
0.4552414482860081
 40
0.6368276321906735
 40
0.8184138160953368
 40
1.0
 40
1.0
 40
1.0
 40
1.0
 10
48.1474003623274
 20
-11.92050807370972
 30
0.0
 10
48.16656083685645
 20
-11.94334263806552
 30
0.0
 10
48.22351116910448
 20
-12.01121340112156
 30
0.0
 10
48.299673544659
 20
-12.10198018580916
 30
0.0
 10
48.37502958147352
 20
-12.19178601340651
 30
0.0
 10
48.42872175800286
 20
-12.25577385767957
 30
0.0
 10
48.46291905515412
 20
-12.2965286094166
 30
0.0
 10
48.46715803490686
 20
-12.30158042876586
 30
0.0
 10
48.46927752478323
 20
-12.30410633844049
 30
0.0
  0
SPLINE
  5
303
330
1B
100
AcDbEntity
 67
     1
  8
0
  6
Continuous
 62
     7
370
    25
100
AcDbSpline
210
0.0
220
0.0
230
1.0
 70
    24
 71
     3
 72
    13
 73
     9
 74
     0
 42
0.00000001
 43
0.00000001
 40
0.0
 40
0.0
 40
0.0
 40
0.0
 40
0.0920690804766808
 40
0.2736552643813453
 40
0.4552414482860077
 40
0.6368276321906732
 40
0.8184138160953379
 40
1.0
 40
1.0
 40
1.0
 40
1.0
 10
48.1474003623274
 20
11.92050807370972
 30
0.0
 10
48.16656083685645
 20
11.94334263806552
 30
0.0
 10
48.22351116910448
 20
12.01121340112156
 30
0.0
 10
48.299673544659
 20
12.10198018580916
 30
0.0
 10
48.3750295814735
 20
12.1917860134065
 30
0.0
 10
48.42872175800285
 20
12.25577385767956
 30
0.0
 10
48.46291905515413
 20
12.2965286094166
 30
0.0
 10
48.46715803490686
 20
12.30158042876586
 30
0.0
 10
48.46927752478323
 20
12.30410633844049
 30
0.0
  0
SPLINE
  5
305
330
1B
100
AcDbEntity
 67
     1
  8
0
  6
Continuous
 62
     7
370
    25
100
AcDbSpline
210
0.0
220
0.0
230
1.0
 70
    24
 71
     3
 72
    15
 73
    11
 74
     0
 42
0.00000001
 43
0.00000001
 40
0.0
 40
0.0
 40
0.0
 40
0.0
 40
0.1364748747341242
 40
0.2729497494682486
 40
0.4094246242023733
 40
0.5458994989364979
 40
0.6823743736706237
 40
0.8188492484047467
 40
0.9553241231388729
 40
1.0
 40
1.0
 40
1.0
 40
1.0
 10
46.86058419423335
 20
13.65396031878221
 30
0.0
 10
46.85846175479059
 20
13.65143089395123
 30
0.0
 10
46.85421687590506
 20
13.64637204428927
 30
0.0
 10
46.82006382224974
 20
13.6056700198975
 30
0.0
 10
46.76620352043573
 20
13.54148181171242
 30
0.0
 10
46.69147574126399
 20
13.45242471241793
 30
0.0
 10
46.59799215438696
 20
13.34101531190861
 30
0.0
 10
46.48610185726145
 20
13.20766964833287
 30
0.0
 10
46.38973856453281
 20
13.0928283480293
 30
0.0
 10
46.32725595752443
 20
13.01836447665241
 30
0.0
 10
46.31184633193863
 20
13.00000000000001
 30
0.0
  0
SPLINE
  5
307
330
1B
100
AcDbEntity
 67
     1
  8
0
  6
Continuous
 62
     7
370
    25
100
AcDbSpline
210
0.0
220
0.0
230
1.0
 70
    24
 71
     3
 72
    13
 73
     9
 74
     0
 42
0.00000001
 43
0.00000001
 40
0.0
 40
0.0
 40
0.0
 40
0.0
 40
0.0920690804766825
 40
0.273655264381347
 40
0.4552414482860091
 40
0.6368276321906742
 40
0.8184138160953371
 40
1.0
 40
1.0
 40
1.0
 40
1.0
 10
-48.1474003623274
 20
11.92050807370972
 30
0.0
 10
-48.16656083685645
 20
11.94334263806552
 30
0.0
 10
-48.2235111691045
 20
12.01121340112156
 30
0.0
 10
-48.299673544659
 20
12.10198018580917
 30
0.0
 10
-48.37502958147351
 20
12.1917860134065
 30
0.0
 10
-48.42872175800286
 20
12.25577385767957
 30
0.0
 10
-48.46291905515412
 20
12.2965286094166
 30
0.0
 10
-48.46715803490687
 20
12.30158042876586
 30
0.0
 10
-48.46927752478324
 20
12.30410633844049
 30
0.0
  0
SPLINE
  5
309
330
1B
100
AcDbEntity
 67
     1
  8
0
  6
Continuous
 62
     7
370
    25
100
AcDbSpline
210
0.0
220
0.0
230
1.0
 70
    24
 71
     3
 72
    15
 73
    11
 74
     0
 42
0.00000001
 43
0.00000001
 40
0.0
 40
0.0
 40
0.0
 40
0.0
 40
0.1364748747341262
 40
0.2729497494682521
 40
0.4094246242023773
 40
0.5458994989365037
 40
0.6823743736706295
 40
0.8188492484047554
 40
0.9553241231388812
 40
0.9999999999999999
 40
0.9999999999999999
 40
0.9999999999999999
 40
0.9999999999999999
 10
-46.86058419423335
 20
13.65396031878221
 30
0.0
 10
-46.85846175479059
 20
13.65143089395123
 30
0.0
 10
-46.85421687590505
 20
13.64637204428927
 30
0.0
 10
-46.82006382224976
 20
13.6056700198975
 30
0.0
 10
-46.76620352043571
 20
13.54148181171241
 30
0.0
 10
-46.69147574126399
 20
13.45242471241794
 30
0.0
 10
-46.59799215438694
 20
13.34101531190861
 30
0.0
 10
-46.48610185726147
 20
13.20766964833287
 30
0.0
 10
-46.38973856453279
 20
13.0928283480293
 30
0.0
 10
-46.32725595752444
 20
13.01836447665242
 30
0.0
 10
-46.31184633193865
 20
13.00000000000002
 30
0.0
  0
SPLINE
  5
30B
330
1B
100
AcDbEntity
 67
     1
  8
0
  6
Continuous
 62
     7
370
    25
100
AcDbSpline
210
0.0
220
0.0
230
1.0
 70
    24
 71
     3
 72
    15
 73
    11
 74
     0
 42
0.00000001
 43
0.00000001
 40
0.0
 40
0.0
 40
0.0
 40
0.0
 40
0.1364748747341229
 40
0.2729497494682462
 40
0.4094246242023696
 40
0.545899498936493
 40
0.6823743736706176
 40
0.8188492484047394
 40
0.9553241231388644
 40
1.0
 40
1.0
 40
1.0
 40
1.0
 10
-46.86058419423335
 20
-13.65396031878221
 30
0.0
 10
-46.8584617547906
 20
-13.65143089395123
 30
0.0
 10
-46.85421687590505
 20
-13.64637204428927
 30
0.0
 10
-46.82006382224976
 20
-13.6056700198975
 30
0.0
 10
-46.76620352043571
 20
-13.54148181171241
 30
0.0
 10
-46.69147574126399
 20
-13.45242471241793
 30
0.0
 10
-46.59799215438697
 20
-13.34101531190861
 30
0.0
 10
-46.48610185726145
 20
-13.20766964833287
 30
0.0
 10
-46.38973856453281
 20
-13.09282834802929
 30
0.0
 10
-46.32725595752441
 20
-13.0183644766524
 30
0.0
 10
-46.31184633193863
 20
-12.99999999999999
 30
0.0
  0
SPLINE
  5
30D
330
1B
100
AcDbEntity
 67
     1
  8
0
  6
Continuous
 62
     7
370
    25
100
AcDbSpline
210
0.0
220
0.0
230
1.0
 70
    24
 71
     3
 72
    13
 73
     9
 74
     0
 42
0.00000001
 43
0.00000001
 40
0.0
 40
0.0
 40
0.0
 40
0.0
 40
0.092069080476685
 40
0.2736552643813487
 40
0.4552414482860103
 40
0.6368276321906748
 40
0.8184138160953387
 40
1.0
 40
1.0
 40
1.0
 40
1.0
 10
-48.1474003623274
 20
-11.92050807370971
 30
0.0
 10
-48.16656083685645
 20
-11.94334263806552
 30
0.0
 10
-48.22351116910449
 20
-12.01121340112156
 30
0.0
 10
-48.29967354465899
 20
-12.10198018580916
 30
0.0
 10
-48.37502958147352
 20
-12.19178601340651
 30
0.0
 10
-48.42872175800285
 20
-12.25577385767956
 30
0.0
 10
-48.46291905515411
 20
-12.2965286094166
 30
0.0
 10
-48.46715803490687
 20
-12.30158042876586
 30
0.0
 10
-48.46927752478324
 20
-12.30410633844049
 30
0.0
  0
LINE
  5
30F
330
1B
100
AcDbEntity
 67
     1
  8
0
  6
Continuous
 62
     7
370
    25
100
AcDbLine
 10
46.8605841942
 20
-13.6539603188
 30
0.0
 11
47.2627575269
 21
-13.3164968237
 31
0.0
  0
LINE
  5
310
330
1B
100
AcDbEntity
 67
     1
  8
0
  6
Continuous
 62
     7
370
    25
100
AcDbLine
 10
48.0671041921
 20
-12.6415698335
 30
0.0
 11
48.4692775248
 21
-12.3041063384
 31
0.0
  0
LINE
  5
311
330
1B
100
AcDbEntity
 67
     1
  8
0
  6
Continuous
 62
     7
370
    25
100
AcDbLine
 10
47.3374899677
 20
-13.1722009045
 30
0.0
 11
47.9120233001
 21
-12.6901101973
 31
0.0
  0
LINE
  5
312
330
1B
100
AcDbEntity
 67
     1
  8
0
  6
Continuous
 62
     7
370
    25
100
AcDbLine
 10
47.7513263977
 20
-12.4985990865
 30
0.0
 11
47.7896286198
 21
-12.466459706
 31
0.0
  0
LINE
  5
313
330
1B
100
AcDbEntity
 67
     1
  8
0
  6
Continuous
 62
     7
370
    25
100
AcDbLine
 10
47.1384908432
 20
-13.0128291743
 30
0.0
 11
47.1767930653
 21
-12.9806897938
 31
0.0
  0
LINE
  5
314
330
1B
100
AcDbEntity
 67
     1
  8
0
  6
Continuous
 62
     7
370
    25
100
AcDbLine
 10
48.4692775248
 20
12.3041063384
 30
0.0
 11
48.0671041921
 21
12.6415698335
 31
0.0
  0
LINE
  5
315
330
1B
100
AcDbEntity
 67
     1
  8
0
  6
Continuous
 62
     7
370
    25
100
AcDbLine
 10
47.2627575269
 20
13.3164968237
 30
0.0
 11
46.8605841942
 21
13.6539603188
 31
0.0
  0
LINE
  5
316
330
1B
100
AcDbEntity
 67
     1
  8
0
  6
Continuous
 62
     7
370
    25
100
AcDbLine
 10
47.9120233001
 20
12.6901101973
 30
0.0
 11
47.3374899677
 21
13.1722009045
 31
0.0
  0
LINE
  5
317
330
1B
100
AcDbEntity
 67
     1
  8
0
  6
Continuous
 62
     7
370
    25
100
AcDbLine
 10
47.1767930653
 20
12.9806897938
 30
0.0
 11
47.1384908432
 21
13.0128291743
 31
0.0
  0
LINE
  5
318
330
1B
100
AcDbEntity
 67
     1
  8
0
  6
Continuous
 62
     7
370
    25
100
AcDbLine
 10
47.7896286198
 20
12.466459706
 30
0.0
 11
47.7513263977
 21
12.4985990865
 31
0.0
  0
LINE
  5
319
330
1B
100
AcDbEntity
 67
     1
  8
0
  6
Continuous
 62
     7
370
    25
100
AcDbLine
 10
-48.0671041921
 20
12.6415698335
 30
0.0
 11
-48.4692775248
 21
12.3041063384
 31
0.0
  0
LINE
  5
31A
330
1B
100
AcDbEntity
 67
     1
  8
0
  6
Continuous
 62
     7
370
    25
100
AcDbLine
 10
-46.8605841942
 20
13.6539603188
 30
0.0
 11
-47.2627575269
 21
13.3164968237
 31
0.0
  0
LINE
  5
31B
330
1B
100
AcDbEntity
 67
     1
  8
0
  6
Continuous
 62
     7
370
    25
100
AcDbLine
 10
-47.3374899677
 20
13.1722009045
 30
0.0
 11
-47.9120233001
 21
12.6901101973
 31
0.0
  0
LINE
  5
31C
330
1B
100
AcDbEntity
 67
     1
  8
0
  6
Continuous
 62
     7
370
    25
100
AcDbLine
 10
-47.7513263977
 20
12.4985990865
 30
0.0
 11
-47.7896286198
 21
12.466459706
 31
0.0
  0
LINE
  5
31D
330
1B
100
AcDbEntity
 67
     1
  8
0
  6
Continuous
 62
     7
370
    25
100
AcDbLine
 10
-47.1384908432
 20
13.0128291743
 30
0.0
 11
-47.1767930653
 21
12.9806897938
 31
0.0
  0
LINE
  5
31E
330
1B
100
AcDbEntity
 67
     1
  8
0
  6
Continuous
 62
     7
370
    25
100
AcDbLine
 10
-47.2627575269
 20
-13.3164968237
 30
0.0
 11
-46.8605841942
 21
-13.6539603188
 31
0.0
  0
LINE
  5
31F
330
1B
100
AcDbEntity
 67
     1
  8
0
  6
Continuous
 62
     7
370
    25
100
AcDbLine
 10
-48.4692775248
 20
-12.3041063384
 30
0.0
 11
-48.0671041921
 21
-12.6415698335
 31
0.0
  0
LINE
  5
320
330
1B
100
AcDbEntity
 67
     1
  8
0
  6
Continuous
 62
     7
370
    25
100
AcDbLine
 10
-47.9120233001
 20
-12.6901101973
 30
0.0
 11
-47.3374899677
 21
-13.1722009045
 31
0.0
  0
LINE
  5
321
330
1B
100
AcDbEntity
 67
     1
  8
0
  6
Continuous
 62
     7
370
    25
100
AcDbLine
 10
-47.1767930653
 20
-12.9806897938
 30
0.0
 11
-47.1384908432
 21
-13.0128291743
 31
0.0
  0
LINE
  5
322
330
1B
100
AcDbEntity
 67
     1
  8
0
  6
Continuous
 62
     7
370
    25
100
AcDbLine
 10
-47.7896286198
 20
-12.466459706
 30
0.0
 11
-47.7513263977
 21
-12.4985990865
 31
0.0
  0
LINE
  5
323
330
1B
100
AcDbEntity
 67
     1
  8
0
  6
Continuous
 62
     7
370
    25
100
AcDbLine
 10
47.6875
 20
2.1875
 30
0.0
 11
24.3125
 21
2.1875
 31
0.0
  0
LINE
  5
324
330
1B
100
AcDbEntity
 67
     1
  8
0
  6
Continuous
 62
     7
370
    25
100
AcDbLine
 10
24.3125
 20
2.1875
 30
0.0
 11
24.3125
 21
1.9375
 31
0.0
  0
LINE
  5
325
330
1B
100
AcDbEntity
 67
     1
  8
0
  6
Continuous
 62
     7
370
    25
100
AcDbLine
 10
47.6875
 20
2.1875
 30
0.0
 11
47.6875
 21
1.9375
 31
0.0
  0
LINE
  5
326
330
1B
100
AcDbEntity
 67
     1
  8
0
  6
Continuous
 62
     7
370
    25
100
AcDbLine
 10
23.6875
 20
2.1875
 30
0.0
 11
0.3125
 21
2.1875
 31
0.0
  0
LINE
  5
327
330
1B
100
AcDbEntity
 67
     1
  8
0
  6
Continuous
 62
     7
370
    25
100
AcDbLine
 10
23.6875
 20
2.1875
 30
0.0
 11
23.6875
 21
1.9375
 31
0.0
  0
LINE
  5
328
330
1B
100
AcDbEntity
 67
     1
  8
0
  6
Continuous
 62
     7
370
    25
100
AcDbLine
 10
0.3125
 20
2.1875
 30
0.0
 11
0.3125
 21
1.9375
 31
0.0
  0
LINE
  5
329
330
1B
100
AcDbEntity
 67
     1
  8
0
  6
Continuous
 62
     7
370
    25
100
AcDbLine
 10
-0.3125
 20
2.1875
 30
0.0
 11
-23.6875
 21
2.1875
 31
0.0
  0
LINE
  5
32A
330
1B
100
AcDbEntity
 67
     1
  8
0
  6
Continuous
 62
     7
370
    25
100
AcDbLine
 10
-23.6875
 20
2.1875
 30
0.0
 11
-23.6875
 21
1.9375
 31
0.0
  0
LINE
  5
32B
330
1B
100
AcDbEntity
 67
     1
  8
0
  6
Continuous
 62
     7
370
    25
100
AcDbLine
 10
-0.3125
 20
2.1875
 30
0.0
 11
-0.3125
 21
1.9375
 31
0.0
  0
LINE
  5
32C
330
1B
100
AcDbEntity
 67
     1
  8
0
  6
Continuous
 62
     7
370
    25
100
AcDbLine
 10
-24.3125
 20
2.1875
 30
0.0
 11
-47.6875
 21
2.1875
 31
0.0
  0
LINE
  5
32D
330
1B
100
AcDbEntity
 67
     1
  8
0
  6
Continuous
 62
     7
370
    25
100
AcDbLine
 10
-47.6875
 20
2.1875
 30
0.0
 11
-47.6875
 21
1.9375
 31
0.0
  0
LINE
  5
32E
330
1B
100
AcDbEntity
 67
     1
  8
0
  6
Continuous
 62
     7
370
    25
100
AcDbLine
 10
-24.3125
 20
2.1875
 30
0.0
 11
-24.3125
 21
1.9375
 31
0.0
  0
LINE
  5
32F
330
1B
100
AcDbEntity
 67
     1
  8
0
  6
Continuous
 62
     7
370
    25
100
AcDbLine
 10
47.6875
 20
-2.1875
 30
0.0
 11
24.3125
 21
-2.1875
 31
0.0
  0
LINE
  5
330
330
1B
100
AcDbEntity
 67
     1
  8
0
  6
Continuous
 62
     7
370
    25
100
AcDbLine
 10
24.3125
 20
-1.9375
 30
0.0
 11
24.3125
 21
-2.1875
 31
0.0
  0
LINE
  5
331
330
1B
100
AcDbEntity
 67
     1
  8
0
  6
Continuous
 62
     7
370
    25
100
AcDbLine
 10
47.6875
 20
-1.9375
 30
0.0
 11
47.6875
 21
-2.1875
 31
0.0
  0
LINE
  5
332
330
1B
100
AcDbEntity
 67
     1
  8
0
  6
Continuous
 62
     7
370
    25
100
AcDbLine
 10
23.6875
 20
-2.1875
 30
0.0
 11
0.3125
 21
-2.1875
 31
0.0
  0
LINE
  5
333
330
1B
100
AcDbEntity
 67
     1
  8
0
  6
Continuous
 62
     7
370
    25
100
AcDbLine
 10
0.3125
 20
-1.9375
 30
0.0
 11
0.3125
 21
-2.1875
 31
0.0
  0
LINE
  5
334
330
1B
100
AcDbEntity
 67
     1
  8
0
  6
Continuous
 62
     7
370
    25
100
AcDbLine
 10
23.6875
 20
-1.9375
 30
0.0
 11
23.6875
 21
-2.1875
 31
0.0
  0
LINE
  5
335
330
1B
100
AcDbEntity
 67
     1
  8
0
  6
Continuous
 62
     7
370
    25
100
AcDbLine
 10
-0.3125
 20
-2.1875
 30
0.0
 11
-23.6875
 21
-2.1875
 31
0.0
  0
LINE
  5
336
330
1B
100
AcDbEntity
 67
     1
  8
0
  6
Continuous
 62
     7
370
    25
100
AcDbLine
 10
-0.3125
 20
-1.9375
 30
0.0
 11
-0.3125
 21
-2.1875
 31
0.0
  0
LINE
  5
337
330
1B
100
AcDbEntity
 67
     1
  8
0
  6
Continuous
 62
     7
370
    25
100
AcDbLine
 10
-23.6875
 20
-1.9375
 30
0.0
 11
-23.6875
 21
-2.1875
 31
0.0
  0
LINE
  5
338
330
1B
100
AcDbEntity
 67
     1
  8
0
  6
Continuous
 62
     7
370
    25
100
AcDbLine
 10
-24.3125
 20
-2.1875
 30
0.0
 11
-47.6875
 21
-2.1875
 31
0.0
  0
LINE
  5
339
330
1B
100
AcDbEntity
 67
     1
  8
0
  6
Continuous
 62
     7
370
    25
100
AcDbLine
 10
-24.3125
 20
-1.9375
 30
0.0
 11
-24.3125
 21
-2.1875
 31
0.0
  0
LINE
  5
33A
330
1B
100
AcDbEntity
 67
     1
  8
0
  6
Continuous
 62
     7
370
    25
100
AcDbLine
 10
-47.6875
 20
-1.9375
 30
0.0
 11
-47.6875
 21
-2.1875
 31
0.0
  0
LINE
  5
33B
330
1B
100
AcDbEntity
 67
     1
  8
0
  6
Continuous
 62
     7
370
    25
100
AcDbLine
 10
47.7654220294
 20
-12.4376114149
 30
0.0
 11
47.9262209869
 21
-12.6292441502
 31
0.0
  0
LINE
  5
33C
330
1B
100
AcDbEntity
 67
     1
  8
0
  6
Continuous
 62
     7
370
    25
100
AcDbLine
 10
47.2750832101
 20
-13.1756136183
 30
0.0
 11
47.0340060449
 21
-12.8883090406
 31
0.0
  0
LINE
  5
33D
330
1B
100
AcDbEntity
 67
     1
  8
0
  6
Continuous
 62
     7
370
    25
100
AcDbLine
 10
47.7289879288
 20
-12.471977136
 30
0.0
 11
47.9120233001
 21
-12.6901101973
 31
0.0
  0
LINE
  5
33E
330
1B
100
AcDbEntity
 67
     1
  8
0
  6
Continuous
 62
     7
370
    25
100
AcDbLine
 10
47.0840055408
 20
-12.8701099281
 30
0.0
 11
47.3374899677
 21
-13.1722009045
 31
0.0
  0
LINE
  5
33F
330
1B
100
AcDbEntity
 67
     1
  8
0
  6
Continuous
 62
     7
370
    25
100
AcDbLine
 10
47.7654220294
 20
12.4376114149
 30
0.0
 11
47.9262209869
 21
12.6292441502
 31
0.0
  0
LINE
  5
340
330
1B
100
AcDbEntity
 67
     1
  8
0
  6
Continuous
 62
     7
370
    25
100
AcDbLine
 10
47.2750832101
 20
13.1756136183
 30
0.0
 11
47.0340060449
 21
12.8883090406
 31
0.0
  0
LINE
  5
341
330
1B
100
AcDbEntity
 67
     1
  8
0
  6
Continuous
 62
     7
370
    25
100
AcDbLine
 10
47.7289879288
 20
12.471977136
 30
0.0
 11
47.9120233001
 21
12.6901101973
 31
0.0
  0
LINE
  5
342
330
1B
100
AcDbEntity
 67
     1
  8
0
  6
Continuous
 62
     7
370
    25
100
AcDbLine
 10
47.0840055408
 20
12.8701099281
 30
0.0
 11
47.3374899677
 21
13.1722009045
 31
0.0
  0
LINE
  5
343
330
1B
100
AcDbEntity
 67
     1
  8
0
  6
Continuous
 62
     7
370
    25
100
AcDbLine
 10
-47.2750832101
 20
13.1756136183
 30
0.0
 11
-47.0340060449
 21
12.8883090406
 31
0.0
  0
LINE
  5
344
330
1B
100
AcDbEntity
 67
     1
  8
0
  6
Continuous
 62
     7
370
    25
100
AcDbLine
 10
-47.7654220294
 20
12.4376114149
 30
0.0
 11
-47.9262209869
 21
12.6292441502
 31
0.0
  0
LINE
  5
345
330
1B
100
AcDbEntity
 67
     1
  8
0
  6
Continuous
 62
     7
370
    25
100
AcDbLine
 10
-47.7289879288
 20
12.471977136
 30
0.0
 11
-47.9120233001
 21
12.6901101973
 31
0.0
  0
LINE
  5
346
330
1B
100
AcDbEntity
 67
     1
  8
0
  6
Continuous
 62
     7
370
    25
100
AcDbLine
 10
-47.0840055408
 20
12.8701099281
 30
0.0
 11
-47.3374899677
 21
13.1722009045
 31
0.0
  0
LINE
  5
347
330
1B
100
AcDbEntity
 67
     1
  8
0
  6
Continuous
 62
     7
370
    25
100
AcDbLine
 10
-47.2750832101
 20
-13.1756136183
 30
0.0
 11
-47.0340060449
 21
-12.8883090406
 31
0.0
  0
LINE
  5
348
330
1B
100
AcDbEntity
 67
     1
  8
0
  6
Continuous
 62
     7
370
    25
100
AcDbLine
 10
-47.7654220294
 20
-12.4376114149
 30
0.0
 11
-47.9262209869
 21
-12.6292441502
 31
0.0
  0
LINE
  5
349
330
1B
100
AcDbEntity
 67
     1
  8
0
  6
Continuous
 62
     7
370
    25
100
AcDbLine
 10
-47.7289879288
 20
-12.471977136
 30
0.0
 11
-47.9120233001
 21
-12.6901101973
 31
0.0
  0
LINE
  5
34A
330
1B
100
AcDbEntity
 67
     1
  8
0
  6
Continuous
 62
     7
370
    25
100
AcDbLine
 10
-47.0840055408
 20
-12.8701099281
 30
0.0
 11
-47.3374899677
 21
-13.1722009045
 31
0.0
  0
LINE
  5
34B
330
1B
100
AcDbEntity
 67
     1
  8
0
  6
Continuous
 62
     7
370
    25
100
AcDbLine
 10
42.875
 20
13.0
 30
0.0
 11
42.875
 21
3.75
 31
0.0
  0
LINE
  5
34C
330
1B
100
AcDbEntity
 67
     1
  8
0
  6
Continuous
 62
     7
370
    25
100
AcDbLine
 10
46.375
 20
-12.75
 30
0.0
 11
42.875
 21
-12.75
 31
0.0
  0
LINE
  5
34D
330
1B
100
AcDbEntity
 67
     1
  8
0
  6
Continuous
 62
     7
370
    25
100
AcDbLine
 10
42.875
 20
-3.75
 30
0.0
 11
42.875
 21
-13.0
 31
0.0
  0
LINE
  5
34E
330
1B
100
AcDbEntity
 67
     1
  8
0
  6
Continuous
 62
     7
370
    25
100
AcDbLine
 10
-42.875
 20
-3.75
 30
0.0
 11
42.875
 21
-3.75
 31
0.0
  0
LINE
  5
34F
330
1B
100
AcDbEntity
 67
     1
  8
0
  6
Continuous
 62
     7
370
    25
100
AcDbLine
 10
-42.875
 20
-13.0
 30
0.0
 11
-42.875
 21
-3.75
 31
0.0
  0
LINE
  5
350
330
1B
100
AcDbEntity
 67
     1
  8
0
  6
Continuous
 62
     7
370
    25
100
AcDbLine
 10
-46.375
 20
12.75
 30
0.0
 11
-42.875
 21
12.75
 31
0.0
  0
LINE
  5
351
330
1B
100
AcDbEntity
 67
     1
  8
0
  6
Continuous
 62
     7
370
    25
100
AcDbLine
 10
-42.875
 20
3.75
 30
0.0
 11
-42.875
 21
13.0
 31
0.0
  0
LINE
  5
352
330
1B
100
AcDbEntity
 67
     1
  8
0
  6
Continuous
 62
     7
370
    25
100
AcDbLine
 10
42.875
 20
3.75
 30
0.0
 11
-42.875
 21
3.75
 31
0.0
  0
LINE
  5
353
330
1B
100
AcDbEntity
 67
     1
  8
0
  6
Continuous
 62
     7
370
    25
100
AcDbLine
 10
43.625
 20
-12.75
 30
0.0
 11
43.625
 21
-13.0
 31
0.0
  0
LINE
  5
354
330
1B
100
AcDbEntity
 67
     1
  8
0
  6
Continuous
 62
     7
370
    25
100
AcDbLine
 10
46.375
 20
-13.0
 30
0.0
 11
42.875
 21
-13.0
 31
0.0
  0
LINE
  5
355
330
1B
100
AcDbEntity
 67
     1
  8
0
  6
Continuous
 62
     7
370
    25
100
AcDbLine
 10
-43.625
 20
12.75
 30
0.0
 11
-43.625
 21
13.0
 31
0.0
  0
LINE
  5
356
330
1B
100
AcDbEntity
 67
     1
  8
0
  6
Continuous
 62
     7
370
    25
100
AcDbLine
 10
-46.375
 20
13.0
 30
0.0
 11
-42.875
 21
13.0
 31
0.0
  0
LINE
  5
357
330
1B
100
AcDbEntity
 67
     1
  8
0
  6
Continuous
 62
     7
370
    25
100
AcDbLine
 10
46.375
 20
12.75
 30
0.0
 11
42.875
 21
12.75
 31
0.0
  0
LINE
  5
358
330
1B
100
AcDbEntity
 67
     1
  8
0
  6
Continuous
 62
     7
370
    25
100
AcDbLine
 10
48.375
 20
11.0
 30
0.0
 11
48.375
 21
-11.0
 31
0.0
  0
LINE
  5
359
330
1B
100
AcDbEntity
 67
     1
  8
0
  6
Continuous
 62
     7
370
    25
100
AcDbLine
 10
46.375
 20
13.0
 30
0.0
 11
42.875
 21
13.0
 31
0.0
  0
LINE
  5
35A
330
1B
100
AcDbEntity
 67
     1
  8
0
  6
Continuous
 62
     7
370
    25
100
AcDbLine
 10
48.125
 20
-11.0
 30
0.0
 11
48.125
 21
-1.9375
 31
0.0
  0
LINE
  5
35B
330
1B
100
AcDbEntity
 67
     1
  8
0
  6
Continuous
 62
     7
370
    25
100
AcDbLine
 10
48.125
 20
1.9375
 30
0.0
 11
48.125
 21
11.0
 31
0.0
  0
LINE
  5
35C
330
1B
100
AcDbEntity
 67
     1
  8
0
  6
Continuous
 62
     7
370
    25
100
AcDbLine
 10
-48.375
 20
11.0
 30
0.0
 11
-48.375
 21
-11.0
 31
0.0
  0
LINE
  5
35D
330
1B
100
AcDbEntity
 67
     1
  8
0
  6
Continuous
 62
     7
370
    25
100
AcDbLine
 10
-43.625
 20
-13.0
 30
0.0
 11
-43.625
 21
-12.75
 31
0.0
  0
LINE
  5
35E
330
1B
100
AcDbEntity
 67
     1
  8
0
  6
Continuous
 62
     7
370
    25
100
AcDbLine
 10
-46.375
 20
-12.75
 30
0.0
 11
-42.875
 21
-12.75
 31
0.0
  0
LINE
  5
35F
330
1B
100
AcDbEntity
 67
     1
  8
0
  6
Continuous
 62
     7
370
    25
100
AcDbLine
 10
-48.125
 20
11.0
 30
0.0
 11
-48.125
 21
1.9375
 31
0.0
  0
LINE
  5
360
330
1B
100
AcDbEntity
 67
     1
  8
0
  6
Continuous
 62
     7
370
    25
100
AcDbLine
 10
-48.125
 20
-1.9375
 30
0.0
 11
-48.125
 21
-11.0
 31
0.0
  0
LINE
  5
361
330
1B
100
AcDbEntity
 67
     1
  8
0
  6
Continuous
 62
     7
370
    25
100
AcDbLine
 10
-46.375
 20
-13.0
 30
0.0
 11
-42.875
 21
-13.0
 31
0.0
  0
LINE
  5
362
330
1B
100
AcDbEntity
 67
     1
  8
0
  6
Continuous
 62
     7
370
    25
100
AcDbLine
 10
48.375
 20
1.9375
 30
0.0
 11
-48.375
 21
1.9375
 31
0.0
  0
LINE
  5
363
330
1B
100
AcDbEntity
 67
     1
  8
0
  6
Continuous
 62
     7
370
    25
100
AcDbLine
 10
48.375
 20
-1.9375
 30
0.0
 11
-48.375
 21
-1.9375
 31
0.0
  0
LINE
  5
364
330
1B
100
AcDbEntity
 67
     1
  8
0
  6
Continuous
 62
     7
370
    25
100
AcDbLine
 10
46.9310260261
 20
-12.9211546159
 30
0.0
 11
47.2627575269
 21
-13.3164968237
 31
0.0
  0
LINE
  5
365
330
1B
100
AcDbEntity
 67
     1
  8
0
  6
Continuous
 62
     7
370
    25
100
AcDbLine
 10
48.0671041921
 20
-12.6415698335
 30
0.0
 11
47.8358561945
 21
-12.3659792015
 31
0.0
  0
LINE
  5
366
330
1B
100
AcDbEntity
 67
     1
  8
0
  6
Continuous
 62
     7
370
    25
100
AcDbLine
 10
48.0671041921
 20
12.6415698335
 30
0.0
 11
47.8358561945
 21
12.3659792015
 31
0.0
  0
LINE
  5
367
330
1B
100
AcDbEntity
 67
     1
  8
0
  6
Continuous
 62
     7
370
    25
100
AcDbLine
 10
46.9310260261
 20
12.9211546159
 30
0.0
 11
47.2627575269
 21
13.3164968237
 31
0.0
  0
LINE
  5
368
330
1B
100
AcDbEntity
 67
     1
  8
0
  6
Continuous
 62
     7
370
    25
100
AcDbLine
 10
-48.0671041921
 20
12.6415698335
 30
0.0
 11
-47.8358561945
 21
12.3659792015
 31
0.0
  0
LINE
  5
369
330
1B
100
AcDbEntity
 67
     1
  8
0
  6
Continuous
 62
     7
370
    25
100
AcDbLine
 10
-46.9310260261
 20
12.9211546159
 30
0.0
 11
-47.2627575269
 21
13.3164968237
 31
0.0
  0
LINE
  5
36A
330
1B
100
AcDbEntity
 67
     1
  8
0
  6
Continuous
 62
     7
370
    25
100
AcDbLine
 10
-46.9310260261
 20
-12.9211546159
 30
0.0
 11
-47.2627575269
 21
-13.3164968237
 31
0.0
  0
LINE
  5
36B
330
1B
100
AcDbEntity
 67
     1
  8
0
  6
Continuous
 62
     7
370
    25
100
AcDbLine
 10
-48.0671041921
 20
-12.6415698335
 30
0.0
 11
-47.8358561945
 21
-12.3659792015
 31
0.0
  0
ARC
  5
36C
330
1B
100
AcDbEntity
 67
     1
  8
0
  6
Continuous
 62
     7
370
    25
100
AcDbCircle
 10
48.0028254312
 20
-12.5649653892
 30
0.0
 40
0.1000000000000016
100
AcDbArc
 50
220.0
 51
310.0
  0
ARC
  5
36D
330
1B
100
AcDbEntity
 67
     1
  8
0
  6
Continuous
 62
     7
370
    25
100
AcDbCircle
 10
47.1984787659
 20
-13.2398923794
 30
0.0
 40
0.0999999999999948
100
AcDbArc
 50
310.0
 51
40.0
  0
ARC
  5
36E
330
1B
100
AcDbEntity
 67
     1
  8
0
  6
Continuous
 62
     7
370
    25
100
AcDbCircle
 10
48.0028254312
 20
12.5649653892
 30
0.0
 40
0.1000000000000016
100
AcDbArc
 50
50.0
 51
140.0
  0
ARC
  5
36F
330
1B
100
AcDbEntity
 67
     1
  8
0
  6
Continuous
 62
     7
370
    25
100
AcDbCircle
 10
47.1984787659
 20
13.2398923794
 30
0.0
 40
0.1000000000000002
100
AcDbArc
 50
320.0
 51
50.0
  0
ARC
  5
370
330
1B
100
AcDbEntity
 67
     1
  8
0
  6
Continuous
 62
     7
370
    25
100
AcDbCircle
 10
-47.1984787659
 20
13.2398923794
 30
0.0
 40
0.0999999999999959
100
AcDbArc
 50
130.0
 51
220.0
  0
ARC
  5
371
330
1B
100
AcDbEntity
 67
     1
  8
0
  6
Continuous
 62
     7
370
    25
100
AcDbCircle
 10
-48.0028254312
 20
12.5649653892
 30
0.0
 40
0.1000000000000016
100
AcDbArc
 50
40.0
 51
130.0
  0
ARC
  5
372
330
1B
100
AcDbEntity
 67
     1
  8
0
  6
Continuous
 62
     7
370
    25
100
AcDbCircle
 10
-47.1984787659
 20
-13.2398923794
 30
0.0
 40
0.1000000000000016
100
AcDbArc
 50
140.0
 51
230.0
  0
ARC
  5
373
330
1B
100
AcDbEntity
 67
     1
  8
0
  6
Continuous
 62
     7
370
    25
100
AcDbCircle
 10
-48.0028254312
 20
-12.5649653892
 30
0.0
 40
0.1000000000000029
100
AcDbArc
 50
230.0
 51
320.0
  0
ARC
  5
374
330
1B
100
AcDbEntity
 67
     1
  8
0
  6
Continuous
 62
     7
370
    25
100
AcDbCircle
 10
46.375
 20
-11.0
 30
0.0
 40
1.750000000000014
100
AcDbArc
 50
270.0
 51
0.0
  0
ARC
  5
375
330
1B
100
AcDbEntity
 67
     1
  8
0
  6
Continuous
 62
     7
370
    25
100
AcDbCircle
 10
46.375
 20
11.0
 30
0.0
 40
2.000000000000014
100
AcDbArc
 50
0.0
 51
90.0
  0
ARC
  5
376
330
1B
100
AcDbEntity
 67
     1
  8
0
  6
Continuous
 62
     7
370
    25
100
AcDbCircle
 10
46.375
 20
-11.0
 30
0.0
 40
2.000000000000014
100
AcDbArc
 50
270.0
 51
0.0
  0
ARC
  5
377
330
1B
100
AcDbEntity
 67
     1
  8
0
  6
Continuous
 62
     7
370
    25
100
AcDbCircle
 10
46.375
 20
11.0
 30
0.0
 40
1.750000000000007
100
AcDbArc
 50
0.0
 51
90.0
  0
ARC
  5
378
330
1B
100
AcDbEntity
 67
     1
  8
0
  6
Continuous
 62
     7
370
    25
100
AcDbCircle
 10
-46.375
 20
11.0
 30
0.0
 40
2.000000000000059
100
AcDbArc
 50
90.0
 51
180.0
  0
ARC
  5
379
330
1B
100
AcDbEntity
 67
     1
  8
0
  6
Continuous
 62
     7
370
    25
100
AcDbCircle
 10
-46.375
 20
11.0
 30
0.0
 40
1.749999999999972
100
AcDbArc
 50
90.0
 51
180.0
  0
ARC
  5
37A
330
1B
100
AcDbEntity
 67
     1
  8
0
  6
Continuous
 62
     7
370
    25
100
AcDbCircle
 10
-46.375
 20
-11.0
 30
0.0
 40
1.75
100
AcDbArc
 50
180.0
 51
270.0
  0
ARC
  5
37B
330
1B
100
AcDbEntity
 67
     1
  8
0
  6
Continuous
 62
     7
370
    25
100
AcDbCircle
 10
-46.375
 20
-11.0
 30
0.0
 40
2.000000000000002
100
AcDbArc
 50
180.0
 51
270.0
  0
VIEWPORT
  5
41B
330
1B
100
AcDbEntity
 67
     1
  8
0
100
AcDbViewport
 10
0.0
 20
0.0
 30
0.0
 40
8.4
 41
6.4
 68
     1
 69
     1
 12
0.0
 22
14.7202816478
 13
0.0
 23
0.0
 14
0.5
 24
0.5
 15
0.5
 25
0.5
 16
0.0
 26
0.0
 36
1.0
 17
0.0
 27
0.0
 37
0.0
 42
50.0
 43
0.0
 44
0.0
 45
75.3496228052
 50
0.0
 51
0.0
 72
   100
 90
   557152
  1

281
     0
 71
     1
 74
     0
110
0.0
120
0.0
130
0.0
111
1.0
121
0.0
131
0.0
112
0.0
122
1.0
132
0.0
 79
     0
146
0.0
  0
ENDSEC
  0
SECTION
  2
OBJECTS
  0
DICTIONARY
  5
C
330
0
100
AcDbDictionary
281
     1
  3
ACAD_GROUP
350
D
  3
ACAD_LAYOUT
350
1A
  3
ACAD_MLINESTYLE
350
17
  3
ACAD_PLOTSETTINGS
350
19
  3
ACAD_PLOTSTYLENAME
350
E
  3
ACAD_SCALELIST
350
47
  3
DWGPROPS
350
41F
  0
DICTIONARY
  5
D
102
{ACAD_REACTORS
330
C
102
}
330
C
100
AcDbDictionary
281
     1
  0
DICTIONARY
  5
1A
102
{ACAD_REACTORS
330
C
102
}
330
C
100
AcDbDictionary
281
     1
  3
_Right
350
26
  3
_Top
350
1E
  3
Model
350
22
  0
DICTIONARY
  5
17
102
{ACAD_REACTORS
330
C
102
}
330
C
100
AcDbDictionary
281
     1
  3
Standard
350
18
  0
DICTIONARY
  5
19
102
{ACAD_REACTORS
330
C
102
}
330
C
100
AcDbDictionary
281
     1
  0
ACDBDICTIONARYWDFLT
  5
E
102
{ACAD_REACTORS
330
C
102
}
330
C
100
AcDbDictionary
281
     1
  3
Normal
350
F
100
AcDbDictionaryWithDefault
340
F
  0
DICTIONARY
  5
47
102
{ACAD_REACTORS
330
C
102
}
330
C
100
AcDbDictionary
281
     1
  3
A0
350
48
  3
A1
350
49
  3
A2
350
4A
  3
A3
350
4B
  3
A4
350
4C
  3
A5
350
4D
  3
A6
350
4E
  3
A7
350
4F
  3
A8
350
50
  3
A9
350
51
  3
B1
350
52
  3
B2
350
53
  3
B3
350
54
  3
B4
350
55
  3
B5
350
56
  3
B6
350
57
  3
B7
350
58
  0
XRECORD
  5
41F
102
{ACAD_REACTORS
330
C
102
}
330
C
100
AcDbXrecord
280
     1
  1
DWGPROPS COOKIE
  2

  3

  4

  6

  7

  8
kshultis
  9

300
=
301
=
302
=
303
=
304
=
305
=
306
=
307
=
308
=
309
=
 40
0.0
 41
2459867.826948218
 42
2459867.826977303
  1

 90
        0
  0
LAYOUT
  5
26
102
{ACAD_REACTORS
330
1A
102
}
330
1A
100
AcDbPlotSettings
  1

  2
none_device
  4
Letter_(8.50_x_11.00_Inches)
  6

 40
6.35
 41
6.35
 42
6.35001
 43
6.35001
 44
215.9
 45
279.4
 46
0.0
 47
0.0
 48
0.0
 49
0.0
140
0.0
141
0.0
142
1.0
143
9.2340896398
 70
   688
 72
     0
 73
     1
 74
     1
  7

 75
     0
147
0.1082943787
148
1231.3658072929
149
347.0200919554
100
AcDbLayout
  1
_Right
 70
     1
 71
     2
 10
0.0
 20
0.0
 11
0.0
 21
0.0
 12
0.0
 22
0.0
 32
0.0
 14
0.0
 24
0.0
 34
0.0
 15
0.0
 25
0.0
 35
0.0
146
0.0
 13
0.0
 23
0.0
 33
0.0
 16
1.0
 26
0.0
 36
0.0
 17
0.0
 27
1.0
 37
0.0
 76
     0
330
23
331
41D
  0
LAYOUT
  5
1E
102
{ACAD_REACTORS
330
1A
102
}
330
1A
100
AcDbPlotSettings
  1

  2
none_device
  4
Letter_(8.50_x_11.00_Inches)
  6

 40
6.35
 41
6.35
 42
6.35001
 43
6.35001
 44
215.9
 45
279.4
 46
0.0
 47
0.0
 48
0.0
 49
0.0
140
0.0
141
0.0
142
1.0
143
9.2340896398
 70
   688
 72
     0
 73
     1
 74
     1
  7

 75
     0
147
0.1082943787
148
1231.3658072929
149
347.0200919554
100
AcDbLayout
  1
_Top
 70
     1
 71
     1
 10
-50.7874948365
 20
-15.9707307546
 11
50.787491201
 21
62.5190311834
 12
0.0
 22
0.0
 32
0.0
 14
-48.4789687911
 24
-13.6622083447
 34
0.0
 15
48.4789687911
 25
13.6622083447
 35
0.0
146
0.0
 13
0.0
 23
0.0
 33
0.0
 16
1.0
 26
0.0
 36
0.0
 17
0.0
 27
1.0
 37
0.0
 76
     0
330
1B
331
41B
  0
LAYOUT
  5
22
102
{ACAD_REACTORS
330
1A
102
}
330
1A
100
AcDbPlotSettings
  1

  2
none_device
  4
ANSI_A_(11.00_x_8.50_Inches)
  6

 40
6.35
 41
19.05
 42
6.35000508
 43
19.05000254
 44
279.4
 45
215.9
 46
133.34999746
 47
46.9050076814
 48
0.0
 49
0.0
140
0.0
141
0.0
142
0.1123175591
143
1.0
 70
  1696
 72
     0
 73
     0
 74
     0
  7

 75
     0
147
0.5913241897
148
-39.4088153714
149
0.0
100
AcDbLayout
  1
Model
 70
     1
 71
     0
 10
0.0
 20
0.0
 11
12.0
 21
9.0
 12
0.0
 22
0.0
 32
0.0
 14
-48.4786176137
 24
-7.0004367044
 34
0.0
 15
48.4786176137
 25
36.441
 35
0.0
146
0.0
 13
0.0
 23
0.0
 33
0.0
 16
1.0
 26
0.0
 36
0.0
 17
0.0
 27
1.0
 37
0.0
 76
     0
330
1F
331
29
  0
MLINESTYLE
  5
18
102
{ACAD_REACTORS
330
17
102
}
330
17
100
AcDbMlineStyle
  2
Standard
 70
     0
  3

 62
   256
 51
90.0
 52
90.0
 71
     2
 49
0.5
 62
   256
  6
BYLAYER
 49
-0.5
 62
   256
  6
BYLAYER
  0
ACDBPLACEHOLDER
  5
F
102
{ACAD_REACTORS
330
E
102
}
330
E
  0
SCALE
  5
48
102
{ACAD_REACTORS
330
47
102
}
330
47
100
AcDbScale
 70
     0
300
1:1
140
1.0
141
1.0
290
     1
  0
SCALE
  5
49
102
{ACAD_REACTORS
330
47
102
}
330
47
100
AcDbScale
 70
     0
300
1/128" = 1'-0"
140
0.0078125
141
12.0
290
     0
  0
SCALE
  5
4A
102
{ACAD_REACTORS
330
47
102
}
330
47
100
AcDbScale
 70
     0
300
1/64" = 1'-0"
140
0.015625
141
12.0
290
     0
  0
SCALE
  5
4B
102
{ACAD_REACTORS
330
47
102
}
330
47
100
AcDbScale
 70
     0
300
1/32" = 1'-0"
140
0.03125
141
12.0
290
     0
  0
SCALE
  5
4C
102
{ACAD_REACTORS
330
47
102
}
330
47
100
AcDbScale
 70
     0
300
1/16" = 1'-0"
140
0.0625
141
12.0
290
     0
  0
SCALE
  5
4D
102
{ACAD_REACTORS
330
47
102
}
330
47
100
AcDbScale
 70
     0
300
3/32" = 1'-0"
140
0.09375
141
12.0
290
     0
  0
SCALE
  5
4E
102
{ACAD_REACTORS
330
47
102
}
330
47
100
AcDbScale
 70
     0
300
1/8" = 1'-0"
140
0.125
141
12.0
290
     0
  0
SCALE
  5
4F
102
{ACAD_REACTORS
330
47
102
}
330
47
100
AcDbScale
 70
     0
300
3/16" = 1'-0"
140
0.1875
141
12.0
290
     0
  0
SCALE
  5
50
102
{ACAD_REACTORS
330
47
102
}
330
47
100
AcDbScale
 70
     0
300
1/4" = 1'-0"
140
0.25
141
12.0
290
     0
  0
SCALE
  5
51
102
{ACAD_REACTORS
330
47
102
}
330
47
100
AcDbScale
 70
     0
300
3/8" = 1'-0"
140
0.375
141
12.0
290
     0
  0
SCALE
  5
52
102
{ACAD_REACTORS
330
47
102
}
330
47
100
AcDbScale
 70
     0
300
1/2" = 1'-0"
140
0.5
141
12.0
290
     0
  0
SCALE
  5
53
102
{ACAD_REACTORS
330
47
102
}
330
47
100
AcDbScale
 70
     0
300
3/4" = 1'-0"
140
0.75
141
12.0
290
     0
  0
SCALE
  5
54
102
{ACAD_REACTORS
330
47
102
}
330
47
100
AcDbScale
 70
     0
300
1" = 1'-0"
140
1.0
141
12.0
290
     0
  0
SCALE
  5
55
102
{ACAD_REACTORS
330
47
102
}
330
47
100
AcDbScale
 70
     0
300
1-1/2" = 1'-0"
140
1.5
141
12.0
290
     0
  0
SCALE
  5
56
102
{ACAD_REACTORS
330
47
102
}
330
47
100
AcDbScale
 70
     0
300
3" = 1'-0"
140
3.0
141
12.0
290
     0
  0
SCALE
  5
57
102
{ACAD_REACTORS
330
47
102
}
330
47
100
AcDbScale
 70
     0
300
6" = 1'-0"
140
6.0
141
12.0
290
     0
  0
SCALE
  5
58
102
{ACAD_REACTORS
330
47
102
}
330
47
100
AcDbScale
 70
     0
300
1'-0" = 1'-0"
140
12.0
141
12.0
290
     0
  0
ENDSEC
  0
EOF
