  0
SECTION
  2
HEADER
  9
$ACADVER
  1
AC1024
  9
$ACADMAINTVER
 70
     6
  9
$DWGCODEPAGE
  3
ANSI_1252
  9
$LASTSAVEDBY
  1
mkozera
  9
$INSBASE
 10
0.0
 20
0.0
 30
0.0
  9
$EXTMIN
 10
-10.0201386704
 20
-9.527492169
 30
0.0
  9
$EXTMAX
 10
7.9423416446
 20
9.2825078295
 30
0.0
  9
$LIMMIN
 10
0.0
 20
0.0
  9
$LIMMAX
 10
12.0
 20
9.0
  9
$ORTHOMODE
 70
     0
  9
$REGENMODE
 70
     1
  9
$FILLMODE
 70
     1
  9
$QTEXTMODE
 70
     0
  9
$MIRRTEXT
 70
     1
  9
$LTSCALE
 40
1.0
  9
$ATTMODE
 70
     1
  9
$TEXTSIZE
 40
0.125
  9
$TRACEWID
 40
0.05
  9
$TEXTSTYLE
  7
Standard
  9
$CLAYER
  8
0
  9
$CELTYPE
  6
ByLayer
  9
$CECOLOR
 62
   256
  9
$CELTSCALE
 40
1.0
  9
$DISPSILH
 70
     0
  9
$DIMSCALE
 40
1.0
  9
$DIMASZ
 40
0.13
  9
$DIMEXO
 40
0.0
  9
$DIMDLI
 40
0.38
  9
$DIMRND
 40
0.0
  9
$DIMDLE
 40
0.0
  9
$DIMEXE
 40
0.125
  9
$DIMTP
 40
0.0
  9
$DIMTM
 40
0.0
  9
$DIMTXT
 40
0.125
  9
$DIMCEN
 40
0.09
  9
$DIMTSZ
 40
0.0
  9
$DIMTOL
 70
     0
  9
$DIMLIM
 70
     0
  9
$DIMTIH
 70
     1
  9
$DIMTOH
 70
     1
  9
$DIMSE1
 70
     0
  9
$DIMSE2
 70
     0
  9
$DIMTAD
 70
     0
  9
$DIMZIN
 70
     0
  9
$DIMBLK
  1

  9
$DIMASO
 70
     1
  9
$DIMSHO
 70
     1
  9
$DIMPOST
  1

  9
$DIMAPOST
  1

  9
$DIMALT
 70
     0
  9
$DIMALTD
 70
     2
  9
$DIMALTF
 40
25.4
  9
$DIMLFAC
 40
1.0
  9
$DIMTOFL
 70
     0
  9
$DIMTVP
 40
0.0
  9
$DIMTIX
 70
     0
  9
$DIMSOXD
 70
     0
  9
$DIMSAH
 70
     0
  9
$DIMBLK1
  1

  9
$DIMBLK2
  1

  9
$DIMSTYLE
  2
Standard
  9
$DIMCLRD
 70
     0
  9
$DIMCLRE
 70
     0
  9
$DIMCLRT
 70
     0
  9
$DIMTFAC
 40
1.0
  9
$DIMGAP
 40
0.06
  9
$DIMJUST
 70
     0
  9
$DIMSD1
 70
     0
  9
$DIMSD2
 70
     0
  9
$DIMTOLJ
 70
     1
  9
$DIMTZIN
 70
     0
  9
$DIMALTZ
 70
     0
  9
$DIMALTTZ
 70
     0
  9
$DIMUPT
 70
     0
  9
$DIMDEC
 70
     3
  9
$DIMTDEC
 70
     3
  9
$DIMALTU
 70
     2
  9
$DIMALTTD
 70
     2
  9
$DIMTXSTY
  7
Standard
  9
$DIMAUNIT
 70
     0
  9
$DIMADEC
 70
     2
  9
$DIMALTRND
 40
0.0
  9
$DIMAZIN
 70
     0
  9
$DIMDSEP
 70
    46
  9
$DIMATFIT
 70
     3
  9
$DIMFRAC
 70
     0
  9
$DIMLDRBLK
  1

  9
$DIMLUNIT
 70
     2
  9
$DIMLWD
 70
    -2
  9
$DIMLWE
 70
    -2
  9
$DIMTMOVE
 70
     0
  9
$DIMFXL
 40
1.0
  9
$DIMFXLON
 70
     0
  9
$DIMJOGANG
 40
0.7853981634
  9
$DIMTFILL
 70
     0
  9
$DIMTFILLCLR
 70
     0
  9
$DIMARCSYM
 70
     0
  9
$DIMLTYPE
  6

  9
$DIMLTEX1
  6

  9
$DIMLTEX2
  6

  9
$DIMTXTDIRECTION
 70
     0
  9
$LUNITS
 70
     2
  9
$LUPREC
 70
     3
  9
$SKETCHINC
 40
0.1
  9
$FILLETRAD
 40
0.0
  9
$AUNITS
 70
     0
  9
$AUPREC
 70
     2
  9
$MENU
  1
.
  9
$ELEVATION
 40
0.0
  9
$PELEVATION
 40
0.0
  9
$THICKNESS
 40
0.0
  9
$LIMCHECK
 70
     0
  9
$CHAMFERA
 40
0.0
  9
$CHAMFERB
 40
0.0
  9
$CHAMFERC
 40
0.0
  9
$CHAMFERD
 40
0.0
  9
$SKPOLY
 70
     0
  9
$TDCREATE
 40
2459870.529066296
  9
$TDUCREATE
 40
2459870.820732963
  9
$TDUPDATE
 40
2459870.529349166
  9
$TDUUPDATE
 40
2459870.821015833
  9
$TDINDWG
 40
0.0000000116
  9
$TDUSRTIMER
 40
0.0000000116
  9
$USRTIMER
 70
     1
  9
$ANGBASE
 50
0.0
  9
$ANGDIR
 70
     0
  9
$PDMODE
 70
     0
  9
$PDSIZE
 40
-1.0
  9
$PLINEWID
 40
0.0
  9
$SPLFRAME
 70
     0
  9
$SPLINETYPE
 70
     6
  9
$SPLINESEGS
 70
     8
  9
$HANDSEED
  5
3C0
  9
$SURFTAB1
 70
     6
  9
$SURFTAB2
 70
     6
  9
$SURFTYPE
 70
     6
  9
$SURFU
 70
     6
  9
$SURFV
 70
     6
  9
$UCSBASE
  2

  9
$UCSNAME
  2

  9
$UCSORG
 10
0.0
 20
0.0
 30
0.0
  9
$UCSXDIR
 10
1.0
 20
0.0
 30
0.0
  9
$UCSYDIR
 10
0.0
 20
1.0
 30
0.0
  9
$UCSORTHOREF
  2

  9
$UCSORTHOVIEW
 70
     0
  9
$UCSORGTOP
 10
0.0
 20
0.0
 30
0.0
  9
$UCSORGBOTTOM
 10
0.0
 20
0.0
 30
0.0
  9
$UCSORGLEFT
 10
0.0
 20
0.0
 30
0.0
  9
$UCSORGRIGHT
 10
0.0
 20
0.0
 30
0.0
  9
$UCSORGFRONT
 10
0.0
 20
0.0
 30
0.0
  9
$UCSORGBACK
 10
0.0
 20
0.0
 30
0.0
  9
$PUCSBASE
  2

  9
$PUCSNAME
  2

  9
$PUCSORG
 10
0.0
 20
0.0
 30
0.0
  9
$PUCSXDIR
 10
1.0
 20
0.0
 30
0.0
  9
$PUCSYDIR
 10
0.0
 20
1.0
 30
0.0
  9
$PUCSORTHOREF
  2

  9
$PUCSORTHOVIEW
 70
     0
  9
$PUCSORGTOP
 10
0.0
 20
0.0
 30
0.0
  9
$PUCSORGBOTTOM
 10
0.0
 20
0.0
 30
0.0
  9
$PUCSORGLEFT
 10
0.0
 20
0.0
 30
0.0
  9
$PUCSORGRIGHT
 10
0.0
 20
0.0
 30
0.0
  9
$PUCSORGFRONT
 10
0.0
 20
0.0
 30
0.0
  9
$PUCSORGBACK
 10
0.0
 20
0.0
 30
0.0
  9
$USERI1
 70
     0
  9
$USERI2
 70
     0
  9
$USERI3
 70
     0
  9
$USERI4
 70
     0
  9
$USERI5
 70
     0
  9
$USERR1
 40
0.0
  9
$USERR2
 40
0.0
  9
$USERR3
 40
0.0
  9
$USERR4
 40
0.0
  9
$USERR5
 40
0.0
  9
$WORLDVIEW
 70
     1
  9
$SHADEDGE
 70
     3
  9
$SHADEDIF
 70
    70
  9
$TILEMODE
 70
     1
  9
$MAXACTVP
 70
    64
  9
$PINSBASE
 10
0.0
 20
0.0
 30
0.0
  9
$PLIMCHECK
 70
     0
  9
$PEXTMIN
 10
-9.8286283242
 20
-9.527492169
 30
0.0
  9
$PEXTMAX
 10
8.1590371005
 20
9.2825078295
 30
0.0
  9
$PLIMMIN
 10
-10.4164417788
 20
-10.1153046978
  9
$PLIMMAX
 10
15.447309492
 20
9.8703212841
  9
$UNITMODE
 70
     0
  9
$VISRETAIN
 70
     1
  9
$PLINEGEN
 70
     0
  9
$PSLTSCALE
 70
     1
  9
$TREEDEPTH
 70
  3020
  9
$CMLSTYLE
  2
Standard
  9
$CMLJUST
 70
     0
  9
$CMLSCALE
 40
1.0
  9
$PROXYGRAPHICS
 70
     1
  9
$MEASUREMENT
 70
     0
  9
$CELWEIGHT
370
    -1
  9
$ENDCAPS
280
     0
  9
$JOINSTYLE
280
     0
  9
$LWDISPLAY
290
     1
  9
$INSUNITS
 70
     1
  9
$HYPERLINKBASE
  1

  9
$STYLESHEET
  1

  9
$XEDIT
290
     1
  9
$CEPSNTYPE
380
     0
  9
$PSTYLEMODE
290
     1
  9
$FINGERPRINTGUID
  2
{bf70d9ed-ae06-4fea-ab0d-013bf655f2d7}
  9
$VERSIONGUID
  2
{FAEB1C32-E019-11D5-929B-00C0DF256EC4}
  9
$EXTNAMES
290
     1
  9
$PSVPSCALE
 40
0.0
  9
$OLESTARTUP
290
     0
  9
$SORTENTS
280
   127
  9
$INDEXCTL
280
     0
  9
$HIDETEXT
280
     1
  9
$XCLIPFRAME
280
     2
  9
$HALOGAP
280
     0
  9
$OBSCOLOR
 70
   257
  9
$OBSLTYPE
280
     0
  9
$INTERSECTIONDISPLAY
280
     0
  9
$INTERSECTIONCOLOR
 70
   257
  9
$DIMASSOC
280
     2
  9
$PROJECTNAME
  1

  9
$CAMERADISPLAY
290
     0
  9
$LENSLENGTH
 40
50.0
  9
$CAMERAHEIGHT
 40
0.0
  9
$STEPSPERSEC
 40
2.0
  9
$STEPSIZE
 40
6.0
  9
$3DDWFPREC
 40
2.0
  9
$PSOLWIDTH
 40
0.25
  9
$PSOLHEIGHT
 40
4.0
  9
$LOFTANG1
 40
1.5707963268
  9
$LOFTANG2
 40
1.5707963268
  9
$LOFTMAG1
 40
0.0
  9
$LOFTMAG2
 40
0.0
  9
$LOFTPARAM
 70
     7
  9
$LOFTNORMALS
280
     1
  9
$LATITUDE
 40
37.795
  9
$LONGITUDE
 40
-122.394
  9
$NORTHDIRECTION
 40
0.0
  9
$TIMEZONE
 70
 -8000
  9
$LIGHTGLYPHDISPLAY
280
     1
  9
$TILEMODELIGHTSYNCH
280
     1
  9
$CMATERIAL
347
44
  9
$SOLIDHIST
280
     0
  9
$SHOWHIST
280
     1
  9
$DWFFRAME
280
     2
  9
$DGNFRAME
280
     2
  9
$REALWORLDSCALE
290
     1
  9
$INTERFERECOLOR
 62
   256
  9
$CSHADOW
280
     0
  9
$SHADOWPLANELOCATION
 40
0.0
  0
ENDSEC
  0
SECTION
  2
CLASSES
  0
CLASS
  1
ACDBDICTIONARYWDFLT
  2
AcDbDictionaryWithDefault
  3
ObjectDBX Classes
 90
        0
 91
        3
280
     0
281
     0
  0
CLASS
  1
VISUALSTYLE
  2
AcDbVisualStyle
  3
ObjectDBX Classes
 90
     4095
 91
        3
280
     0
281
     0
  0
CLASS
  1
MATERIAL
  2
AcDbMaterial
  3
ObjectDBX Classes
 90
     1153
 91
        3
280
     0
281
     0
  0
CLASS
  1
SCALE
  2
AcDbScale
  3
ObjectDBX Classes
 90
     1153
 91
        3
280
     0
281
     0
  0
CLASS
  1
TABLESTYLE
  2
AcDbTableStyle
  3
ObjectDBX Classes
 90
     4095
 91
        3
280
     0
281
     0
  0
CLASS
  1
MLEADERSTYLE
  2
AcDbMLeaderStyle
  3
ACDB_MLEADERSTYLE_CLASS
 90
     4095
 91
        3
280
     0
281
     0
  0
CLASS
  1
SUN
  2
AcDbSun
  3
SCENEOE
 90
     1153
 91
        3
280
     0
281
     0
  0
CLASS
  1
DICTIONARYVAR
  2
AcDbDictionaryVar
  3
ObjectDBX Classes
 90
        0
 91
        3
280
     0
281
     0
  0
CLASS
  1
CELLSTYLEMAP
  2
AcDbCellStyleMap
  3
ObjectDBX Classes
 90
     1152
 91
        3
280
     0
281
     0
  0
ENDSEC
  0
SECTION
  2
TABLES
  0
TABLE
  2
VPORT
  5
8
330
0
100
AcDbSymbolTable
 70
     1
  0
VPORT
  5
29
330
8
100
AcDbSymbolTableRecord
100
AcDbViewportTableRecord
  2
*Active
 70
     0
 10
0.0
 20
0.0
 11
1.0
 21
1.0
 12
-1.0388985129
 22
-0.1224921697
 13
0.0
 23
0.0
 14
0.5
 24
0.5
 15
0.5
 25
0.5
 16
0.0
 26
0.0
 36
1.0
 17
0.0
 27
0.0
 37
0.0
 40
19.1861999985
 41
0.9549431322
 42
50.0
 43
0.0
 44
0.0
 50
0.0
 51
0.0
 71
     0
 72
   100
 73
     1
 74
     3
 75
     0
 76
     0
 77
     0
 78
     0
281
     0
 65
     1
110
0.0
120
0.0
130
0.0
111
1.0
121
0.0
131
0.0
112
0.0
122
1.0
132
0.0
 79
     0
146
0.0
348
2F
 60
     3
 61
     5
292
     1
282
     1
141
0.0
142
0.0
 63
   250
361
5D
  0
ENDTAB
  0
TABLE
  2
LTYPE
  5
5
330
0
100
AcDbSymbolTable
 70
     6
  0
LTYPE
  5
14
330
5
100
AcDbSymbolTableRecord
100
AcDbLinetypeTableRecord
  2
ByBlock
 70
     0
  3

 72
    65
 73
     0
 40
0.0
  0
LTYPE
  5
15
330
5
100
AcDbSymbolTableRecord
100
AcDbLinetypeTableRecord
  2
ByLayer
 70
     0
  3

 72
    65
 73
     0
 40
0.0
  0
LTYPE
  5
16
330
5
100
AcDbSymbolTableRecord
100
AcDbLinetypeTableRecord
  2
Continuous
 70
     0
  3
Solid line
 72
    65
 73
     0
 40
0.0
  0
LTYPE
  5
5E
330
5
100
AcDbSymbolTableRecord
100
AcDbLinetypeTableRecord
  2
HIDDEN
 70
     0
  3
Hidden __ __ __ __ __ __ __ __ __ __ __ __ __ __
 72
    65
 73
     2
 40
0.075
 49
0.05
 74
     0
 49
-0.025
 74
     0
  0
LTYPE
  5
5F
330
5
100
AcDbSymbolTableRecord
100
AcDbLinetypeTableRecord
  2
PHANTOM
 70
     0
  3
Phantom ______  __  __  ______  __  __  ______
 72
    65
 73
     6
 40
0.5
 49
0.25
 74
     0
 49
-0.05
 74
     0
 49
0.05
 74
     0
 49
-0.05
 74
     0
 49
0.05
 74
     0
 49
-0.05
 74
     0
  0
LTYPE
  5
60
330
5
100
AcDbSymbolTableRecord
100
AcDbLinetypeTableRecord
  2
CENTER
 70
     0
  3
Center ____ _ ____ _ ____ _ ____ _ ____ _ ____
 72
    65
 73
     4
 40
0.4
 49
0.25
 74
     0
 49
-0.05
 74
     0
 49
0.05
 74
     0
 49
-0.05
 74
     0
  0
LTYPE
  5
61
330
5
100
AcDbSymbolTableRecord
100
AcDbLinetypeTableRecord
  2
CENTERX2
 70
     0
  3
Center (2x) ________  __  ________  __  _____
 72
    65
 73
     4
 40
0.8
 49
0.5
 74
     0
 49
-0.1
 74
     0
 49
0.1
 74
     0
 49
-0.1
 74
     0
  0
LTYPE
  5
62
330
5
100
AcDbSymbolTableRecord
100
AcDbLinetypeTableRecord
  2
DOT2
 70
     0
  3
Dot (.5x) ........................................
 72
    65
 73
     2
 40
0.025
 49
0.0
 74
     0
 49
-0.025
 74
     0
  0
ENDTAB
  0
TABLE
  2
LAYER
  5
2
330
0
100
AcDbSymbolTable
 70
     1
  0
LAYER
  5
10
330
2
100
AcDbSymbolTableRecord
100
AcDbLayerTableRecord
  2
0
 70
     0
 62
     7
  6
Continuous
370
    -3
390
F
347
46
  0
ENDTAB
  0
TABLE
  2
STYLE
  5
3
330
0
100
AcDbSymbolTable
 70
     1
  0
STYLE
  5
11
330
3
100
AcDbSymbolTableRecord
100
AcDbTextStyleTableRecord
  2
Standard
 70
     0
 40
0.0
 41
1.0
 50
0.0
 71
     0
 42
0.125
  3
txt
  4

  0
ENDTAB
  0
TABLE
  2
VIEW
  5
6
330
0
100
AcDbSymbolTable
 70
     0
  0
ENDTAB
  0
TABLE
  2
UCS
  5
7
330
0
100
AcDbSymbolTable
 70
     0
  0
ENDTAB
  0
TABLE
  2
APPID
  5
9
330
0
100
AcDbSymbolTable
 70
     1
  0
APPID
  5
12
330
9
100
AcDbSymbolTableRecord
100
AcDbRegAppTableRecord
  2
ACAD
 70
     0
  0
ENDTAB
  0
TABLE
  2
DIMSTYLE
  5
A
330
0
100
AcDbSymbolTable
 70
     1
100
AcDbDimStyleTable
  0
DIMSTYLE
105
27
330
A
100
AcDbSymbolTableRecord
100
AcDbDimStyleTableRecord
  2
Standard
 70
     0
178
     0
340
11
  0
ENDTAB
  0
TABLE
  2
BLOCK_RECORD
  5
1
330
0
100
AcDbSymbolTable
 70
     1
  0
BLOCK_RECORD
  5
1F
330
1
100
AcDbSymbolTableRecord
100
AcDbBlockTableRecord
  2
*Model_Space
340
22
 70
     0
280
     1
281
     0
  0
BLOCK_RECORD
  5
1B
330
1
100
AcDbSymbolTableRecord
100
AcDbBlockTableRecord
  2
*Paper_Space
340
1E
 70
     0
280
     1
281
     0
  0
BLOCK_RECORD
  5
23
330
1
100
AcDbSymbolTableRecord
100
AcDbBlockTableRecord
  2
*Paper_Space0
340
26
 70
     0
280
     1
281
     0
  0
ENDTAB
  0
ENDSEC
  0
SECTION
  2
BLOCKS
  0
BLOCK
  5
20
330
1F
100
AcDbEntity
  8
0
100
AcDbBlockBegin
  2
*Model_Space
 70
     0
 10
0.0
 20
0.0
 30
0.0
  3
*Model_Space
  1

  0
ENDBLK
  5
21
330
1F
100
AcDbEntity
  8
0
100
AcDbBlockEnd
  0
BLOCK
  5
1C
330
1B
100
AcDbEntity
 67
     1
  8
0
100
AcDbBlockBegin
  2
*Paper_Space
 70
     0
 10
0.0
 20
0.0
 30
0.0
  3
*Paper_Space
  1

  0
ENDBLK
  5
1D
330
1B
100
AcDbEntity
 67
     1
  8
0
100
AcDbBlockEnd
  0
BLOCK
  5
24
330
23
100
AcDbEntity
  8
0
100
AcDbBlockBegin
  2
*Paper_Space0
 70
     0
 10
0.0
 20
0.0
 30
0.0
  3
*Paper_Space0
  1

  0
LWPOLYLINE
  5
327
330
23
100
AcDbEntity
  8
0
  6
Continuous
 62
     7
370
    25
100
AcDbPolyline
 90
       16
 70
   128
 43
0.0
 10
-8.2413985129
 20
-9.8286283242
 10
-8.3851251499
 20
-9.8234501861
 10
-8.5272770878
 20
-9.8079725046
 10
-8.6662968802
 20
-9.7823648565
 10
-8.8006613971
 20
-9.7469078044
 10
-8.9288985129
 20
-9.7019898232
 10
-9.0496032348
 20
-9.6481030438
 10
-9.1614530966
 20
-9.585837861
 10
-9.2632226479
 20
-9.5158764652
 10
-9.3537968802
 20
-9.438985368
 10
-9.4321834431
 20
-9.3560070044
 10
-9.4975235172
 20
-9.2678505027
 10
-9.5491012228
 20
-9.175481724
 10
-9.5863514639
 20
-9.07991268
 10
-9.608866119
 20
-8.982190445
 10
-9.6163985129
 20
-8.8833856845
  0
LWPOLYLINE
  5
328
330
23
100
AcDbEntity
  8
0
  6
Continuous
 62
     7
370
    25
100
AcDbPolyline
 90
       14
 70
   128
 43
0.0
 10
-8.2413985129
 20
-9.570834877
 10
-8.3619351932
 20
-9.5658225984
 10
-8.4807141772
 20
-9.5508588529
 10
-8.5960033999
 20
-9.5261618455
 10
-8.7061216849
 20
-9.4920917143
 10
-8.8094632596
 20
-9.4491452786
 10
-8.9045211711
 20
-9.3979487939
 10
-8.9899092611
 20
-9.3392488204
 10
-9.0643823788
 20
-9.2739013359
 10
-9.1268545386
 20
-9.2028592539
 10
-9.1764147556
 20
-9.1271585278
 10
-9.2123403303
 20
-9.0479030447
 10
-9.234107387
 20
-8.966248528
 10
-9.2413985129
 20
-8.8833856845
  0
LWPOLYLINE
  5
32B
330
23
100
AcDbEntity
  8
0
  6
Continuous
 62
     7
370
    25
100
AcDbPolyline
 90
       14
 70
   128
 43
0.0
 10
-8.2413985129
 20
-8.118369927
 10
-8.3619351932
 20
-8.1133576484
 10
-8.4807141772
 20
-8.0983939029
 10
-8.5960033999
 20
-8.0736968955
 10
-8.7061216849
 20
-8.0396267644
 10
-8.8094632596
 20
-7.9966803286
 10
-8.9045211711
 20
-7.9454838439
 10
-8.9899092611
 20
-7.8867838705
 10
-9.0643823788
 20
-7.821436386
 10
-9.1268545386
 20
-7.7503943039
 10
-9.1764147556
 20
-7.6746935778
 10
-9.2123403303
 20
-7.5954380947
 10
-9.234107387
 20
-7.513783578
 10
-9.2413985129
 20
-7.4309207345
  0
LWPOLYLINE
  5
32C
330
23
100
AcDbEntity
  8
0
  6
Continuous
 62
     7
370
    25
100
AcDbPolyline
 90
       14
 70
   128
 43
0.0
 10
7.1636014871
 20
-8.8833856845
 10
7.1563103612
 20
-8.966248528
 10
7.1345433045
 20
-9.0479030447
 10
7.0986177298
 20
-9.1271585278
 10
7.0490575128
 20
-9.2028592539
 10
6.986585353
 20
-9.2739013359
 10
6.9121122353
 20
-9.3392488204
 10
6.8267241453
 20
-9.3979487939
 10
6.7316662338
 20
-9.4491452786
 10
6.6283246591
 20
-9.4920917143
 10
6.5182063741
 20
-9.5261618455
 10
6.4029171514
 20
-9.5508588529
 10
6.2841381674
 20
-9.5658225984
 10
6.1636014871
 20
-9.570834877
  0
LWPOLYLINE
  5
32E
330
23
100
AcDbEntity
  8
0
  6
Continuous
 62
     7
370
    25
100
AcDbPolyline
 90
       14
 70
   128
 43
0.0
 10
7.1636014871
 20
-7.4309207345
 10
7.1563103612
 20
-7.513783578
 10
7.1345433045
 20
-7.5954380947
 10
7.0986177298
 20
-7.6746935778
 10
7.0490575128
 20
-7.7503943039
 10
6.986585353
 20
-7.821436386
 10
6.9121122353
 20
-7.8867838705
 10
6.8267241453
 20
-7.9454838439
 10
6.7316662338
 20
-7.9966803286
 10
6.6283246591
 20
-8.0396267644
 10
6.5182063741
 20
-8.0736968955
 10
6.4029171514
 20
-8.0983939029
 10
6.2841381674
 20
-8.1133576484
 10
6.1636014871
 20
-8.118369927
  0
LWPOLYLINE
  5
32F
330
23
100
AcDbEntity
  8
0
  6
Continuous
 62
     7
370
    25
100
AcDbPolyline
 90
       16
 70
   128
 43
0.0
 10
7.5386014871
 20
-8.8833856845
 10
7.5310690932
 20
-8.982190445
 10
7.5085544381
 20
-9.07991268
 10
7.471304197
 20
-9.175481724
 10
7.4197264914
 20
-9.2678505027
 10
7.3543864173
 20
-9.3560070044
 10
7.2759998544
 20
-9.438985368
 10
7.1854256221
 20
-9.5158764652
 10
7.0836560708
 20
-9.585837861
 10
6.971806209
 20
-9.6481030438
 10
6.8511014871
 20
-9.7019898232
 10
6.7228643713
 20
-9.7469078044
 10
6.5884998544
 20
-9.7823648565
 10
6.449480062
 20
-9.8079725046
 10
6.3073281241
 20
-9.8234501861
 10
6.1636014871
 20
-9.8286283242
  0
LINE
  5
343
330
23
100
AcDbEntity
  8
0
  6
Continuous
 62
     7
370
    25
100
AcDbLine
 10
6.9340147126
 20
-0.1277628995
 30
0.0
 11
6.9559014871
 21
-0.1277628995
 31
0.0
  0
LINE
  5
344
330
23
100
AcDbEntity
  8
0
  6
Continuous
 62
     7
370
    25
100
AcDbLine
 10
6.9559014871
 20
0.3122371005
 30
0.0
 11
6.9340147126
 21
0.3122371005
 31
0.0
  0
LINE
  5
345
330
23
100
AcDbEntity
  8
0
  6
Continuous
 62
     7
370
    25
100
AcDbLine
 10
7.1432014871
 20
-0.0327628995
 30
0.0
 11
7.1636014871
 21
-0.0327628995
 31
0.0
  0
LINE
  5
346
330
23
100
AcDbEntity
  8
0
  6
Continuous
 62
     7
370
    25
100
AcDbLine
 10
7.1636014871
 20
0.2172371005
 30
0.0
 11
7.1432014871
 21
0.2172371005
 31
0.0
  0
LINE
  5
347
330
23
100
AcDbEntity
  8
0
  6
Continuous
 62
     7
370
    25
100
AcDbLine
 10
-9.0118117384
 20
0.3122371005
 30
0.0
 11
-9.0336985129
 21
0.3122371005
 31
0.0
  0
LINE
  5
348
330
23
100
AcDbEntity
  8
0
  6
Continuous
 62
     7
370
    25
100
AcDbLine
 10
-9.0336985129
 20
-0.1277628995
 30
0.0
 11
-9.0118117384
 21
-0.1277628995
 31
0.0
  0
LINE
  5
349
330
23
100
AcDbEntity
  8
0
  6
Continuous
 62
     7
370
    25
100
AcDbLine
 10
-9.2209985129
 20
0.2172371005
 30
0.0
 11
-9.2413985129
 21
0.2172371005
 31
0.0
  0
LINE
  5
34A
330
23
100
AcDbEntity
  8
0
  6
Continuous
 62
     7
370
    25
100
AcDbLine
 10
-9.2413985129
 20
-0.0327628995
 30
0.0
 11
-9.2209985129
 21
-0.0327628995
 31
0.0
  0
LINE
  5
34B
330
23
100
AcDbEntity
  8
0
  6
Continuous
 62
     7
370
    25
100
AcDbLine
 10
-9.0336985129
 20
0.4047371005
 30
0.0
 11
-9.0986985129
 21
0.4047371005
 31
0.0
  0
LINE
  5
34C
330
23
100
AcDbEntity
  8
0
  6
Continuous
 62
     7
370
    25
100
AcDbLine
 10
-9.0986985129
 20
-0.2202628995
 30
0.0
 11
-9.0336985129
 21
-0.2202628995
 31
0.0
  0
LINE
  5
34D
330
23
100
AcDbEntity
  8
0
  6
Continuous
 62
     7
370
    25
100
AcDbLine
 10
6.9559014871
 20
-0.2202628995
 30
0.0
 11
7.0209014871
 21
-0.2202628995
 31
0.0
  0
LINE
  5
34E
330
23
100
AcDbEntity
  8
0
  6
Continuous
 62
     7
370
    25
100
AcDbLine
 10
7.0209014871
 20
0.4047371005
 30
0.0
 11
6.9559014871
 21
0.4047371005
 31
0.0
  0
LINE
  5
34F
330
23
100
AcDbEntity
  8
0
  6
Continuous
 62
     7
370
    25
100
AcDbLine
 10
7.1432014871
 20
0.5922371005
 30
0.0
 11
7.0807014871
 21
0.5922371005
 31
0.0
  0
LINE
  5
350
330
23
100
AcDbEntity
  8
0
  6
Continuous
 62
     7
370
    25
100
AcDbLine
 10
7.0807014871
 20
-0.4077628995
 30
0.0
 11
7.1432014871
 21
-0.4077628995
 31
0.0
  0
LINE
  5
351
330
23
100
AcDbEntity
  8
0
  6
Continuous
 62
     7
370
    25
100
AcDbLine
 10
-9.1584985129
 20
0.5922371005
 30
0.0
 11
-9.2209985129
 21
0.5922371005
 31
0.0
  0
LINE
  5
352
330
23
100
AcDbEntity
  8
0
  6
Continuous
 62
     7
370
    25
100
AcDbLine
 10
-9.2209985129
 20
-0.4077628995
 30
0.0
 11
-9.1584985129
 21
-0.4077628995
 31
0.0
  0
LINE
  5
353
330
23
100
AcDbEntity
  8
0
  6
Continuous
 62
     7
370
    25
100
AcDbLine
 10
-9.9913985129
 20
0.4162528485
 30
0.0
 11
-10.0201386704
 21
0.387512691
 31
0.0
  0
LINE
  5
354
330
23
100
AcDbEntity
  8
0
  6
Continuous
 62
     7
370
    25
100
AcDbLine
 10
-10.0201386704
 20
-0.2030384901
 30
0.0
 11
-9.9913985129
 21
-0.2317786475
 31
0.0
  0
LINE
  5
355
330
23
100
AcDbEntity
  8
0
  6
Continuous
 62
     7
370
    25
100
AcDbLine
 10
7.9136014871
 20
-0.2317786475
 30
0.0
 11
7.9423416446
 21
-0.2030384901
 31
0.0
  0
LINE
  5
356
330
23
100
AcDbEntity
  8
0
  6
Continuous
 62
     7
370
    25
100
AcDbLine
 10
7.9423416446
 20
0.387512691
 30
0.0
 11
7.9136014871
 21
0.4162528485
 31
0.0
  0
LINE
  5
357
330
23
100
AcDbEntity
  8
0
  6
Continuous
 62
     7
370
    25
100
AcDbLine
 10
7.8511014871
 20
1.0922371005
 30
0.0
 11
7.1636014871
 21
1.0922371005
 31
0.0
  0
LINE
  5
358
330
23
100
AcDbEntity
  8
0
  6
Continuous
 62
     7
370
    25
100
AcDbLine
 10
-9.2413985129
 20
1.0922371005
 30
0.0
 11
-9.9288985129
 21
1.0922371005
 31
0.0
  0
LINE
  5
359
330
23
100
AcDbEntity
  8
0
  6
Continuous
 62
     7
370
    25
100
AcDbLine
 10
-9.9288985129
 20
-0.9077628995
 30
0.0
 11
-9.6163985129
 21
-0.9077628995
 31
0.0
  0
LINE
  5
35A
330
23
100
AcDbEntity
  8
0
  6
Continuous
 62
     7
370
    25
100
AcDbLine
 10
7.5386014871
 20
-0.9077628995
 30
0.0
 11
7.8511014871
 21
-0.9077628995
 31
0.0
  0
LINE
  5
35B
330
23
100
AcDbEntity
  8
0
  6
Continuous
 62
     7
370
    25
100
AcDbLine
 10
-7.3540985129
 20
-8.0173628995
 30
0.0
 11
-7.3540985129
 21
-7.9980628995
 31
0.0
  0
LINE
  5
35C
330
23
100
AcDbEntity
  8
0
  6
Continuous
 62
     7
370
    25
100
AcDbLine
 10
-7.3540985129
 20
-8.0173628995
 30
0.0
 11
-7.4138985129
 21
-8.0173628995
 31
0.0
  0
LINE
  5
35D
330
23
100
AcDbEntity
  8
0
  6
Continuous
 62
     7
370
    25
100
AcDbLine
 10
-7.4138985129
 20
-8.0173628995
 30
0.0
 11
-7.4138985129
 21
-7.9980628995
 31
0.0
  0
LINE
  5
35E
330
23
100
AcDbEntity
  8
0
  6
Continuous
 62
     7
370
    25
100
AcDbLine
 10
-7.4138985129
 20
-7.9980628995
 30
0.0
 11
-7.3540985129
 21
-7.9980628995
 31
0.0
  0
LINE
  5
35F
330
23
100
AcDbEntity
  8
0
  6
Continuous
 62
     7
370
    25
100
AcDbLine
 10
7.0807014871
 20
6.5992371005
 30
0.0
 11
7.0209014871
 21
6.5992371005
 31
0.0
  0
LINE
  5
360
330
23
100
AcDbEntity
  8
0
  6
Continuous
 62
     7
370
    25
100
AcDbLine
 10
5.5209014871
 20
8.0992371005
 30
0.0
 11
5.5209014871
 21
8.1590371005
 31
0.0
  0
LINE
  5
361
330
23
100
AcDbEntity
  8
0
  6
Continuous
 62
     7
370
    25
100
AcDbLine
 10
5.5209014871
 20
-8.0801628995
 30
0.0
 11
5.5209014871
 21
-8.0203628995
 31
0.0
  0
LINE
  5
362
330
23
100
AcDbEntity
  8
0
  6
Continuous
 62
     7
370
    25
100
AcDbLine
 10
-7.3510985129
 20
-8.0203628995
 30
0.0
 11
-7.3510985129
 21
-8.0801628995
 31
0.0
  0
LINE
  5
363
330
23
100
AcDbEntity
  8
0
  6
Continuous
 62
     7
370
    25
100
AcDbLine
 10
5.5209014871
 20
-8.0801628995
 30
0.0
 11
-7.3510985129
 21
-8.0801628995
 31
0.0
  0
LINE
  5
364
330
23
100
AcDbEntity
  8
0
  6
Continuous
 62
     7
370
    25
100
AcDbLine
 10
5.5209014871
 20
-8.0203628995
 30
0.0
 11
-7.3510985129
 21
-8.0203628995
 31
0.0
  0
LINE
  5
365
330
23
100
AcDbEntity
  8
0
  6
Continuous
 62
     7
370
    25
100
AcDbLine
 10
7.0209014871
 20
-6.5203628995
 30
0.0
 11
7.0807014871
 21
-6.5203628995
 31
0.0
  0
LINE
  5
366
330
23
100
AcDbEntity
  8
0
  6
Continuous
 62
     7
370
    25
100
AcDbLine
 10
7.0807014871
 20
6.5992371005
 30
0.0
 11
7.0807014871
 21
-6.5203628995
 31
0.0
  0
LINE
  5
367
330
23
100
AcDbEntity
  8
0
  6
Continuous
 62
     7
370
    25
100
AcDbLine
 10
7.0209014871
 20
6.5992371005
 30
0.0
 11
7.0209014871
 21
-6.5203628995
 31
0.0
  0
LINE
  5
368
330
23
100
AcDbEntity
  8
0
  6
Continuous
 62
     7
370
    25
100
AcDbLine
 10
-7.5986985129
 20
8.1590371005
 30
0.0
 11
-7.5986985129
 21
8.0992371005
 31
0.0
  0
LINE
  5
369
330
23
100
AcDbEntity
  8
0
  6
Continuous
 62
     7
370
    25
100
AcDbLine
 10
-7.5986985129
 20
8.1590371005
 30
0.0
 11
5.5209014871
 21
8.1590371005
 31
0.0
  0
LINE
  5
36A
330
23
100
AcDbEntity
  8
0
  6
Continuous
 62
     7
370
    25
100
AcDbLine
 10
-7.5986985129
 20
8.0992371005
 30
0.0
 11
5.5209014871
 21
8.0992371005
 31
0.0
  0
LINE
  5
36B
330
23
100
AcDbEntity
  8
0
  6
Continuous
 62
     7
370
    25
100
AcDbLine
 10
-9.0986985129
 20
6.5992371005
 30
0.0
 11
-9.1584985129
 21
6.5992371005
 31
0.0
  0
LINE
  5
36C
330
23
100
AcDbEntity
  8
0
  6
Continuous
 62
     7
370
    25
100
AcDbLine
 10
-9.1584985129
 20
-6.5203628995
 30
0.0
 11
-9.0986985129
 21
-6.5203628995
 31
0.0
  0
LINE
  5
36D
330
23
100
AcDbEntity
  8
0
  6
Continuous
 62
     7
370
    25
100
AcDbLine
 10
-9.1584985129
 20
-6.5203628995
 30
0.0
 11
-9.1584985129
 21
6.5992371005
 31
0.0
  0
LINE
  5
36E
330
23
100
AcDbEntity
  8
0
  6
Continuous
 62
     7
370
    25
100
AcDbLine
 10
-9.0986985129
 20
-6.5203628995
 30
0.0
 11
-9.0986985129
 21
6.5992371005
 31
0.0
  0
LINE
  5
36F
330
23
100
AcDbEntity
  8
0
  6
Continuous
 62
     7
370
    25
100
AcDbLine
 10
-7.5986985129
 20
-8.0203628995
 30
0.0
 11
-7.5986985129
 21
-8.0801628995
 31
0.0
  0
LINE
  5
370
330
23
100
AcDbEntity
  8
0
  6
Continuous
 62
     7
370
    25
100
AcDbLine
 10
-7.4486985129
 20
-8.0801628995
 30
0.0
 11
-7.5986985129
 21
-8.0801628995
 31
0.0
  0
LINE
  5
371
330
23
100
AcDbEntity
  8
0
  6
Continuous
 62
     7
370
    25
100
AcDbLine
 10
-7.4486985129
 20
-8.0203628995
 30
0.0
 11
-7.5986985129
 21
-8.0203628995
 31
0.0
  0
LINE
  5
372
330
23
100
AcDbEntity
  8
0
  6
Continuous
 62
     7
370
    25
100
AcDbLine
 10
-7.4486985129
 20
-8.0203628995
 30
0.0
 11
-7.4486985129
 21
-8.0801628995
 31
0.0
  0
LINE
  5
373
330
23
100
AcDbEntity
  8
0
  6
Continuous
 62
     7
370
    25
100
AcDbLine
 10
-7.4168985129
 20
-7.9950628995
 30
0.0
 11
-7.4168985129
 21
-7.9352628995
 31
0.0
  0
LINE
  5
374
330
23
100
AcDbEntity
  8
0
  6
Continuous
 62
     7
370
    25
100
AcDbLine
 10
-7.6040985129
 20
-7.9352628995
 30
0.0
 11
-7.6040985129
 21
-7.9950628995
 31
0.0
  0
LINE
  5
375
330
23
100
AcDbEntity
  8
0
  6
Continuous
 62
     7
370
    25
100
AcDbLine
 10
-7.6040985129
 20
-7.9950628995
 30
0.0
 11
-7.4168985129
 21
-7.9950628995
 31
0.0
  0
LINE
  5
376
330
23
100
AcDbEntity
  8
0
  6
Continuous
 62
     7
370
    25
100
AcDbLine
 10
-7.6040985129
 20
-7.9352628995
 30
0.0
 11
-7.4168985129
 21
-7.9352628995
 31
0.0
  0
LINE
  5
377
330
23
100
AcDbEntity
  8
0
  6
Continuous
 62
     7
370
    25
100
AcDbLine
 10
6.8415737075
 20
0.1672371005
 30
0.0
 11
6.8380909602
 21
0.1672371005
 31
0.0
  0
LINE
  5
378
330
23
100
AcDbEntity
  8
0
  6
Continuous
 62
     7
370
    25
100
AcDbLine
 10
6.8380909602
 20
0.0172371005
 30
0.0
 11
6.8415737075
 21
0.0172371005
 31
0.0
  0
LINE
  5
379
330
23
100
AcDbEntity
  8
0
  6
Continuous
 62
     7
370
    25
100
AcDbLine
 10
6.9340147126
 20
-0.1277628995
 30
0.0
 11
6.9340147126
 21
0.3122371005
 31
0.0
  0
LINE
  5
37A
330
23
100
AcDbEntity
  8
0
  6
Continuous
 62
     7
370
    25
100
AcDbLine
 10
-9.0118117384
 20
0.3122371005
 30
0.0
 11
-9.0118117384
 21
-0.1277628995
 31
0.0
  0
LINE
  5
37B
330
23
100
AcDbEntity
  8
0
  6
Continuous
 62
     7
370
    25
100
AcDbLine
 10
-9.0336985129
 20
-0.2202628995
 30
0.0
 11
-9.0336985129
 21
0.4047371005
 31
0.0
  0
LINE
  5
37C
330
23
100
AcDbEntity
  8
0
  6
Continuous
 62
     7
370
    25
100
AcDbLine
 10
6.9559014871
 20
0.4047371005
 30
0.0
 11
6.9559014871
 21
-0.2202628995
 31
0.0
  0
LINE
  5
37D
330
23
100
AcDbEntity
  8
0
  6
Continuous
 62
     7
370
    25
100
AcDbLine
 10
7.1432014871
 20
-0.4077628995
 30
0.0
 11
7.1432014871
 21
0.5922371005
 31
0.0
  0
LINE
  5
37E
330
23
100
AcDbEntity
  8
0
  6
Continuous
 62
     7
370
    25
100
AcDbLine
 10
-9.2209985129
 20
-0.4077628995
 30
0.0
 11
-9.2209985129
 21
0.5922371005
 31
0.0
  0
LINE
  5
37F
330
23
100
AcDbEntity
  8
0
  6
Continuous
 62
     7
370
    25
100
AcDbLine
 10
-10.0201386704
 20
0.387512691
 30
0.0
 11
-10.0201386704
 21
-0.2030384901
 31
0.0
  0
LINE
  5
380
330
23
100
AcDbEntity
  8
0
  6
Continuous
 62
     7
370
    25
100
AcDbLine
 10
7.9423416446
 20
-0.2030384901
 30
0.0
 11
7.9423416446
 21
0.387512691
 31
0.0
  0
LINE
  5
381
330
23
100
AcDbEntity
  8
0
  6
Continuous
 62
     7
370
    25
100
AcDbLine
 10
7.5386014871
 20
1.0922371005
 30
0.0
 11
7.5386014871
 21
-8.8833856845
 31
0.0
  0
LINE
  5
382
330
23
100
AcDbEntity
  8
0
  6
Continuous
 62
     7
370
    25
100
AcDbLine
 10
7.5386014871
 20
-0.6339953745
 30
0.0
 11
7.1636014871
 21
-0.6339953745
 31
0.0
  0
LINE
  5
383
330
23
100
AcDbEntity
  8
0
  6
Continuous
 62
     7
370
    25
100
AcDbLine
 10
7.1636014871
 20
1.0922371005
 30
0.0
 11
7.1636014871
 21
-8.8833856845
 31
0.0
  0
LINE
  5
384
330
23
100
AcDbEntity
  8
0
  6
Continuous
 62
     7
370
    25
100
AcDbLine
 10
7.1636014871
 20
0.779686293
 30
0.0
 11
7.5386014871
 21
0.779686293
 31
0.0
  0
LINE
  5
385
330
23
100
AcDbEntity
  8
0
  6
Continuous
 62
     7
370
    25
100
AcDbLine
 10
-9.2413985129
 20
-0.6339953745
 30
0.0
 11
-9.6163985129
 21
-0.6339953745
 31
0.0
  0
LINE
  5
386
330
23
100
AcDbEntity
  8
0
  6
Continuous
 62
     7
370
    25
100
AcDbLine
 10
-9.6163985129
 20
0.779686293
 30
0.0
 11
-9.2413985129
 21
0.779686293
 31
0.0
  0
LINE
  5
387
330
23
100
AcDbEntity
  8
0
  6
Continuous
 62
     7
370
    25
100
AcDbLine
 10
-9.6163985129
 20
-8.8833856845
 30
0.0
 11
-9.6163985129
 21
1.0922371005
 31
0.0
  0
LINE
  5
388
330
23
100
AcDbEntity
  8
0
  6
Continuous
 62
     7
370
    25
100
AcDbLine
 10
-9.2413985129
 20
-8.8833856845
 30
0.0
 11
-9.2413985129
 21
1.0922371005
 31
0.0
  0
LINE
  5
389
330
23
100
AcDbEntity
  8
0
  6
Continuous
 62
     7
370
    25
100
AcDbLine
 10
7.1636014871
 20
-8.8833856845
 30
0.0
 11
7.5386014871
 21
-8.8833856845
 31
0.0
  0
LINE
  5
38A
330
23
100
AcDbEntity
  8
0
  6
Continuous
 62
     7
370
    25
100
AcDbLine
 10
-9.6163985129
 20
-8.8833856845
 30
0.0
 11
-9.2413985129
 21
-8.8833856845
 31
0.0
  0
LINE
  5
38B
330
23
100
AcDbEntity
  8
0
  6
Continuous
 62
     7
370
    25
100
AcDbLine
 10
-8.2413985129
 20
-9.8286283242
 30
0.0
 11
-8.2413985129
 21
-8.118369927
 31
0.0
  0
LINE
  5
38C
330
23
100
AcDbEntity
  8
0
  6
Continuous
 62
     7
370
    25
100
AcDbLine
 10
6.1636014871
 20
-9.8286283242
 30
0.0
 11
6.1636014871
 21
-8.118369927
 31
0.0
  0
LINE
  5
38D
330
23
100
AcDbEntity
  8
0
  6
Continuous
 62
     7
370
    25
100
AcDbLine
 10
6.1636014871
 20
-9.570834877
 30
0.0
 11
-8.2413985129
 21
-9.570834877
 31
0.0
  0
LINE
  5
38E
330
23
100
AcDbEntity
  8
0
  6
Continuous
 62
     7
370
    25
100
AcDbLine
 10
6.1636014871
 20
-8.118369927
 30
0.0
 11
-8.2413985129
 21
-8.118369927
 31
0.0
  0
LINE
  5
38F
330
23
100
AcDbEntity
  8
0
  6
Continuous
 62
     7
370
    25
100
AcDbLine
 10
6.1636014871
 20
-9.8286283242
 30
0.0
 11
-8.2413985129
 21
-9.8286283242
 31
0.0
  0
LINE
  5
390
330
23
100
AcDbEntity
  8
0
  6
Continuous
 62
     7
370
    25
100
AcDbLine
 10
-9.9913985129
 20
-0.8452628995
 30
0.0
 11
-9.9913985129
 21
1.0297371005
 31
0.0
  0
LINE
  5
391
330
23
100
AcDbEntity
  8
0
  6
Continuous
 62
     7
370
    25
100
AcDbLine
 10
7.9136014871
 20
1.0297371005
 30
0.0
 11
7.9136014871
 21
-0.8452628995
 31
0.0
  0
LINE
  5
392
330
23
100
AcDbEntity
  8
0
  6
Continuous
 62
     7
370
    25
100
AcDbLine
 10
-7.3430985129
 20
-8.0203628995
 30
0.0
 11
-7.3430985129
 21
-7.9070419465
 31
0.0
  0
LINE
  5
393
330
23
100
AcDbEntity
  8
0
  6
Continuous
 62
     7
370
    25
100
AcDbLine
 10
-7.3430985129
 20
-7.9070419465
 30
0.0
 11
-7.6087987388
 21
-7.9070419465
 31
0.0
  0
LINE
  5
394
330
23
100
AcDbEntity
  8
0
  6
Continuous
 62
     7
370
    25
100
AcDbLine
 10
-7.6087987388
 20
-7.9070419465
 30
0.0
 11
-7.6087987388
 21
-8.0203288943
 31
0.0
  0
LINE
  5
395
330
23
100
AcDbEntity
  8
0
  6
Continuous
 62
     7
370
    25
100
AcDbLine
 10
-9.9288985129
 20
-0.9077628995
 30
0.0
 11
-9.9288985129
 21
1.0922371005
 31
0.0
  0
LINE
  5
396
330
23
100
AcDbEntity
  8
0
  6
Continuous
 62
     7
370
    25
100
AcDbLine
 10
7.8511014871
 20
1.0922371005
 30
0.0
 11
7.8511014871
 21
-0.9077628995
 31
0.0
  0
ARC
  5
397
330
23
100
AcDbEntity
  8
0
  6
Continuous
 62
     7
370
    25
100
AcDbCircle
 10
7.1090163828
 20
0.0922371005
 30
0.0
 40
0.2811148956973119
100
AcDbArc
 50
195.473629038
 51
231.4990798668
  0
ARC
  5
398
330
23
100
AcDbEntity
  8
0
  6
Continuous
 62
     7
370
    25
100
AcDbCircle
 10
7.1090163828
 20
0.0922371005
 30
0.0
 40
0.2811148956973077
100
AcDbArc
 50
128.5009201332
 51
164.526370962
  0
ARC
  5
399
330
23
100
AcDbEntity
  8
0
  6
Continuous
 62
     7
370
    25
100
AcDbCircle
 10
-9.1868134086
 20
0.0922371005
 30
0.0
 40
0.2811148956973025
100
AcDbArc
 50
16.4941308067
 51
51.4990798668
  0
ARC
  5
39A
330
23
100
AcDbEntity
  8
0
  6
Continuous
 62
     7
370
    25
100
AcDbCircle
 10
-9.1868134086
 20
0.0922371005
 30
0.0
 40
0.2811148956973271
100
AcDbArc
 50
308.5009201332
 51
343.5058691933
  0
ARC
  5
39B
330
23
100
AcDbEntity
  8
0
  6
Continuous
 62
     7
370
    25
100
AcDbCircle
 10
-9.9288985129
 20
-0.8452628995
 30
0.0
 40
0.0625000000000023
100
AcDbArc
 50
180.0
 51
270.0
  0
ARC
  5
39C
330
23
100
AcDbEntity
  8
0
  6
Continuous
 62
     7
370
    25
100
AcDbCircle
 10
-9.9288985129
 20
1.0297371005
 30
0.0
 40
0.0625000000000002
100
AcDbArc
 50
90.0
 51
180.0
  0
ARC
  5
39D
330
23
100
AcDbEntity
  8
0
  6
Continuous
 62
     7
370
    25
100
AcDbCircle
 10
7.8511014871
 20
1.0297371005
 30
0.0
 40
0.0625000000000009
100
AcDbArc
 50
0.0
 51
90.0
  0
ARC
  5
39E
330
23
100
AcDbEntity
  8
0
  6
Continuous
 62
     7
370
    25
100
AcDbCircle
 10
7.8511014871
 20
-0.8452628995
 30
0.0
 40
0.0624999999999992
100
AcDbArc
 50
270.0
 51
360.0
  0
ARC
  5
39F
330
23
100
AcDbEntity
  8
0
  6
Continuous
 62
     7
370
    25
100
AcDbCircle
 10
5.5209014871
 20
6.5992371005
 30
0.0
 40
1.5598
100
AcDbArc
 50
0.0
 51
90.0
  0
ARC
  5
3A0
330
23
100
AcDbEntity
  8
0
  6
Continuous
 62
     7
370
    25
100
AcDbCircle
 10
5.5209014871
 20
6.5992371005
 30
0.0
 40
1.500000000000001
100
AcDbArc
 50
0.0
 51
90.0
  0
ARC
  5
3A1
330
23
100
AcDbEntity
  8
0
  6
Continuous
 62
     7
370
    25
100
AcDbCircle
 10
5.5209014871
 20
-6.5203628995
 30
0.0
 40
1.559800000000002
100
AcDbArc
 50
270.0
 51
0.0
  0
ARC
  5
3A2
330
23
100
AcDbEntity
  8
0
  6
Continuous
 62
     7
370
    25
100
AcDbCircle
 10
5.5209014871
 20
-6.5203628995
 30
0.0
 40
1.499999999999999
100
AcDbArc
 50
270.0
 51
0.0
  0
ARC
  5
3A3
330
23
100
AcDbEntity
  8
0
  6
Continuous
 62
     7
370
    25
100
AcDbCircle
 10
-7.5986985129
 20
6.5992371005
 30
0.0
 40
1.559800000000002
100
AcDbArc
 50
90.0
 51
180.0
  0
ARC
  5
3A4
330
23
100
AcDbEntity
  8
0
  6
Continuous
 62
     7
370
    25
100
AcDbCircle
 10
-7.5986985129
 20
6.5992371005
 30
0.0
 40
1.500000000000005
100
AcDbArc
 50
90.0
 51
180.0
  0
ARC
  5
3A5
330
23
100
AcDbEntity
  8
0
  6
Continuous
 62
     7
370
    25
100
AcDbCircle
 10
-7.5986985129
 20
-6.5203628995
 30
0.0
 40
1.559800000000005
100
AcDbArc
 50
180.0
 51
270.0
  0
ARC
  5
3A6
330
23
100
AcDbEntity
  8
0
  6
Continuous
 62
     7
370
    25
100
AcDbCircle
 10
-7.5986985129
 20
-6.5203628995
 30
0.0
 40
1.499999999999998
100
AcDbArc
 50
180.0
 51
270.0
  0
ARC
  5
3A7
330
23
100
AcDbEntity
  8
0
  6
Continuous
 62
     7
370
    25
100
AcDbCircle
 10
-7.4168985129
 20
-7.9980628995
 30
0.0
 40
0.0627999999999984
100
AcDbArc
 50
0.0
 51
90.0
  0
ARC
  5
3A8
330
23
100
AcDbEntity
  8
0
  6
Continuous
 62
     7
370
    25
100
AcDbCircle
 10
-7.4168985129
 20
-7.9980628995
 30
0.0
 40
0.0029999999999983
100
AcDbArc
 50
360.0
 51
90.0
  0
ARC
  5
3A9
330
23
100
AcDbEntity
  8
0
  6
Continuous
 62
     7
370
    25
100
AcDbCircle
 10
-7.3510985129
 20
-8.0173628995
 30
0.0
 40
0.0627999999999975
100
AcDbArc
 50
180.0
 51
270.0
  0
ARC
  5
3AA
330
23
100
AcDbEntity
  8
0
  6
Continuous
 62
     7
370
    25
100
AcDbCircle
 10
-7.3510985129
 20
-8.0173628995
 30
0.0
 40
0.0029999999999983
100
AcDbArc
 50
179.9999999999
 51
270.0
  0
ARC
  5
3AB
330
23
100
AcDbEntity
  8
0
  6
Continuous
 62
     7
370
    25
100
AcDbCircle
 10
7.0417930448
 20
0.0547371005
 30
0.0
 40
0.2037008419816681
100
AcDbArc
 50
169.3917142037
 51
190.6082857963
  0
ARC
  5
3AC
330
23
100
AcDbEntity
  8
0
  6
Continuous
 62
     7
370
    25
100
AcDbCircle
 10
7.0417930448
 20
0.1297371005
 30
0.0
 40
0.2037008419816672
100
AcDbArc
 50
169.3917142037
 51
190.6082857963
  0
ARC
  5
3AD
330
23
100
AcDbEntity
  8
0
  6
Continuous
 62
     7
370
    25
100
AcDbCircle
 10
-9.1786665016
 20
0.0792134035
 30
0.0
 40
0.2627784980576615
100
AcDbArc
 50
354.1282100201
 51
2.84082867
  0
ARC
  5
3AE
330
23
100
AcDbEntity
  8
0
  6
Continuous
 62
     7
370
    25
100
AcDbCircle
 10
-9.0282656048
 20
0.1496879395
 30
0.0
 40
0.1123768217383913
100
AcDbArc
 50
351.018291661
 51
4.339464229
  0
ARC
  5
3AF
330
23
100
AcDbEntity
  8
0
  6
Continuous
 62
     7
370
    25
100
AcDbCircle
 10
-8.9492546373
 20
0.1626729187
 30
0.0
 40
0.0333341346709783
100
AcDbArc
 50
333.7011818747
 51
16.3389233038
  0
ARC
  5
3B0
330
23
100
AcDbEntity
  8
0
  6
Continuous
 62
     7
370
    25
100
AcDbCircle
 10
-9.1787052819
 20
0.1052607138
 30
0.0
 40
0.2628171797126942
100
AcDbArc
 50
350.6621856632
 51
9.3378143368
  0
ARC
  5
3B1
330
23
100
AcDbEntity
  8
0
  6
Continuous
 62
     7
370
    25
100
AcDbCircle
 10
-9.0290203122
 20
0.0347837673
 30
0.0
 40
0.1131270745671056
100
AcDbArc
 50
345.7568358973
 51
14.2431641027
  0
ARC
  5
3B2
330
23
100
AcDbEntity
  8
0
  6
Continuous
 62
     7
370
    25
100
AcDbCircle
 10
-8.9494115126
 20
0.0217848357
 30
0.0
 40
0.0335039316198362
100
AcDbArc
 50
333.719147616
 51
7.7160623767
  0
VIEWPORT
  5
3B5
330
23
100
AcDbEntity
  8
0
100
AcDbViewport
 10
0.0
 20
0.0
 30
0.0
 40
8.4
 41
6.4
 68
     1
 69
     1
 12
-1.0388985129
 22
-0.1224921697
 13
0.0
 23
0.0
 14
0.5
 24
0.5
 15
0.5
 25
0.5
 16
0.0
 26
0.0
 36
1.0
 17
0.0
 27
0.0
 37
0.0
 42
50.0
 43
0.0
 44
0.0
 45
19.1861999985
 50
0.0
 51
0.0
 72
   100
 90
   557152
  1

281
     0
 71
     1
 74
     0
110
0.0
120
0.0
130
0.0
111
1.0
121
0.0
131
0.0
112
0.0
122
1.0
132
0.0
 79
     0
146
0.0
170
     0
 61
     5
348
2F
292
     1
282
     1
141
0.0
142
0.0
 63
   256
361
3B6
  0
ENDBLK
  5
25
330
23
100
AcDbEntity
  8
0
100
AcDbBlockEnd
  0
ENDSEC
  0
SECTION
  2
ENTITIES
  0
LWPOLYLINE
  5
70
330
1F
100
AcDbEntity
  8
0
  6
Continuous
 62
     7
370
    25
100
AcDbPolyline
 90
        3
 70
   128
 43
0.0
 10
5.4427009465
 20
-9.527492169
 10
5.4536464231
 20
-9.5264679962
 10
5.4623172689
 20
-9.5241356762
  0
LWPOLYLINE
  5
73
330
1F
100
AcDbEntity
  8
0
  6
Continuous
 62
     7
370
    25
100
AcDbPolyline
 90
        3
 70
   128
 43
0.0
 10
-6.0572990535
 20
-9.527492169
 10
-6.0463535769
 20
-9.5264679962
 10
-6.0376827311
 20
-9.5241356762
  0
SPLINE
  5
C7
330
1F
100
AcDbEntity
  8
0
  6
Continuous
 62
     7
370
    25
100
AcDbSpline
210
0.0
220
0.0
230
1.0
 70
    24
 71
     3
 72
    19
 73
    15
 74
     0
 42
0.00000001
 43
0.00000001
 40
0.0
 40
0.0
 40
0.0
 40
0.0
 40
0.0516954918575323
 40
0.1428684559053966
 40
0.2340414199532612
 40
0.3252143840011253
 40
0.4163873480489906
 40
0.507560312096855
 40
0.5987332761447195
 40
0.6899062401925842
 40
0.7810792042404489
 40
0.8722521682883134
 40
0.9634251323361781
 40
1.0
 40
1.0
 40
1.0
 40
1.0
 10
-7.638465214347073
 20
-8.152492170456352
 30
0.0
 10
-7.638465214347073
 20
-8.174360739766918
 30
0.0
 10
-7.638465214347073
 20
-8.234797900107152
 30
0.0
 10
-7.63846521434707
 20
-8.348738331168228
 30
0.0
 10
-7.638465214347074
 20
-8.486777639170388
 30
0.0
 10
-7.638465214347073
 20
-8.627681485119307
 30
0.0
 10
-7.638465214347071
 20
-8.76515633014601
 30
0.0
 10
-7.638465214347071
 20
-8.894144228210964
 30
0.0
 10
-7.638465214347073
 20
-9.009666389185478
 30
0.0
 10
-7.638465214347073
 20
-9.107145656224043
 30
0.0
 10
-7.638465214347073
 20
-9.183408633243955
 30
0.0
 10
-7.638465214347071
 20
-9.23337157186163
 30
0.0
 10
-7.638465214347073
 20
-9.257208834928523
 30
0.0
 10
-7.638465214347071
 20
-9.25432324621775
 30
0.0
 10
-7.638465214347073
 20
-9.253497087183858
 30
0.0
  0
SPLINE
  5
CE
330
1F
100
AcDbEntity
  8
0
  6
Continuous
 62
     7
370
    25
100
AcDbSpline
210
0.0
220
0.0
230
1.0
 70
    24
 71
     3
 72
    19
 73
    15
 74
     0
 42
0.00000001
 43
0.00000001
 40
0.0
 40
0.0
 40
0.0
 40
0.0
 40
0.0516954918575459
 40
0.142868455905409
 40
0.2340414199532721
 40
0.3252143840011348
 40
0.4163873480489985
 40
0.5075603120968615
 40
0.5987332761447239
 40
0.6899062401925872
 40
0.7810792042404509
 40
0.872252168288314
 40
0.9634251323361764
 40
1.0
 40
1.0
 40
1.0
 40
1.0
 10
3.861534785652924
 20
-8.152492170456352
 30
0.0
 10
3.861534785652924
 20
-8.174360739766925
 30
0.0
 10
3.861534785652925
 20
-8.234797900107164
 30
0.0
 10
3.861534785652923
 20
-8.348738331168246
 30
0.0
 10
3.861534785652924
 20
-8.486777639170404
 30
0.0
 10
3.861534785652924
 20
-8.627681485119323
 30
0.0
 10
3.861534785652926
 20
-8.76515633014603
 30
0.0
 10
3.861534785652923
 20
-8.894144228210985
 30
0.0
 10
3.861534785652925
 20
-9.009666389185496
 30
0.0
 10
3.861534785652923
 20
-9.107145656224063
 30
0.0
 10
3.861534785652926
 20
-9.18340863324398
 30
0.0
 10
3.861534785652923
 20
-9.233371571861644
 30
0.0
 10
3.861534785652925
 20
-9.257208834928548
 30
0.0
 10
3.861534785652924
 20
-9.254323246217771
 30
0.0
 10
3.861534785652924
 20
-9.253497087183877
 30
0.0
  0
SPLINE
  5
EB
330
1F
100
AcDbEntity
  8
0
  6
Continuous
 62
     7
370
    25
100
AcDbSpline
210
0.0
220
0.0
230
1.0
 70
    24
 71
     3
 72
    14
 73
    10
 74
     0
 42
0.00000001
 43
0.00000001
 40
0.0
 40
0.0
 40
0.0
 40
0.0
 40
0.1500108609129195
 40
0.3000217218258388
 40
0.4500325827387578
 40
0.6000434436516772
 40
0.7500543045645957
 40
0.9000651654775148
 40
1.0
 40
1.0
 40
1.0
 40
1.0
 10
-7.579318510686983
 20
-8.543240200456314
 30
0.0
 10
-7.579318510686983
 20
-8.616267213605312
 30
0.0
 10
-7.579318510686983
 20
-8.762321239903308
 30
0.0
 10
-7.579318510686982
 20
-8.969331432720255
 30
0.0
 10
-7.579318510686983
 20
-9.15265333025255
 30
0.0
 10
-7.579318510686983
 20
-9.302833058538555
 30
0.0
 10
-7.579318510686982
 20
-9.409043601199661
 30
0.0
 10
-7.579318510686983
 20
-9.467528893317246
 30
0.0
 10
-7.579318510686984
 20
-9.4674077905909
 30
0.0
 10
-7.579318510686983
 20
-9.467359370549513
 30
0.0
  0
SPLINE
  5
ED
330
1F
100
AcDbEntity
  8
0
  6
Continuous
 62
     7
370
    25
100
AcDbSpline
210
0.0
220
0.0
230
1.0
 70
    24
 71
     3
 72
    18
 73
    14
 74
     0
 42
0.00000001
 43
0.00000001
 40
0.0
 40
0.0
 40
0.0
 40
0.0
 40
0.0808192804539879
 40
0.1786060694094126
 40
0.2763928583648376
 40
0.3741796473202629
 40
0.4719664362756879
 40
0.5697532252311132
 40
0.6675400141865377
 40
0.7653268031419631
 40
0.8631135920973888
 40
0.9609003810528135
 40
1.0
 40
1.0
 40
1.0
 40
1.0
 10
-7.16409851290237
 20
-8.152492170456354
 30
0.0
 10
-7.164098512902369
 20
-8.198436014118458
 30
0.0
 10
-7.164098512902369
 20
-8.299969327505496
 30
0.0
 10
-7.16409851290237
 20
-8.470436759335094
 30
0.0
 10
-7.16409851290237
 20
-8.652623083298622
 30
0.0
 10
-7.164098512902369
 20
-8.831022360432481
 30
0.0
 10
-7.16409851290237
 20
-8.998240171788895
 30
0.0
 10
-7.164098512902369
 20
-9.148044748437195
 30
0.0
 10
-7.164098512902369
 20
-9.274440548151453
 30
0.0
 10
-7.16409851290237
 20
-9.37333047887615
 30
0.0
 10
-7.164098512902371
 20
-9.43811198181264
 30
0.0
 10
-7.164098512902368
 20
-9.469015935789015
 30
0.0
 10
-7.164098512902369
 20
-9.46528242628143
 30
0.0
 10
-7.164098512902369
 20
-9.46421600338876
 30
0.0
  0
SPLINE
  5
F2
330
1F
100
AcDbEntity
  8
0
  6
Continuous
 62
     7
370
    25
100
AcDbSpline
210
0.0
220
0.0
230
1.0
 70
    24
 71
     3
 72
    18
 73
    14
 74
     0
 42
0.00000001
 43
0.00000001
 40
0.0
 40
0.0
 40
0.0
 40
0.0
 40
0.0808192804539972
 40
0.1786060694094209
 40
0.2763928583648447
 40
0.3741796473202688
 40
0.4719664362756929
 40
0.569753225231117
 40
0.6675400141865404
 40
0.7653268031419644
 40
0.8631135920973886
 40
0.9609003810528128
 40
1.0
 40
1.0
 40
1.0
 40
1.0
 10
4.335901487097628
 20
-8.152492170456352
 30
0.0
 10
4.335901487097627
 20
-8.198436014118464
 30
0.0
 10
4.335901487097627
 20
-8.299969327505503
 30
0.0
 10
4.335901487097628
 20
-8.470436759335113
 30
0.0
 10
4.335901487097626
 20
-8.652623083298637
 30
0.0
 10
4.335901487097628
 20
-8.831022360432495
 30
0.0
 10
4.335901487097627
 20
-8.998240171788911
 30
0.0
 10
4.335901487097628
 20
-9.148044748437217
 30
0.0
 10
4.335901487097626
 20
-9.27444054815147
 30
0.0
 10
4.335901487097628
 20
-9.373330478876174
 30
0.0
 10
4.335901487097626
 20
-9.438111981812652
 30
0.0
 10
4.335901487097627
 20
-9.46901593578904
 30
0.0
 10
4.335901487097628
 20
-9.46528242628145
 30
0.0
 10
4.335901487097628
 20
-9.464216003388781
 30
0.0
  0
SPLINE
  5
F3
330
1F
100
AcDbEntity
  8
0
  6
Continuous
 62
     7
370
    25
100
AcDbSpline
210
0.0
220
0.0
230
1.0
 70
    24
 71
     3
 72
    14
 73
    10
 74
     0
 42
0.00000001
 43
0.00000001
 40
0.0
 40
0.0
 40
0.0
 40
0.0
 40
0.1500108609129192
 40
0.3000217218258378
 40
0.4500325827387566
 40
0.6000434436516752
 40
0.7500543045645939
 40
0.9000651654775128
 40
1.0
 40
1.0
 40
1.0
 40
1.0
 10
3.920681489313014
 20
-8.543240200456331
 30
0.0
 10
3.920681489313014
 20
-8.616267213605331
 30
0.0
 10
3.920681489313012
 20
-8.762321239903326
 30
0.0
 10
3.920681489313014
 20
-8.969331432720274
 30
0.0
 10
3.920681489313012
 20
-9.152653330252567
 30
0.0
 10
3.920681489313014
 20
-9.302833058538571
 30
0.0
 10
3.920681489313014
 20
-9.409043601199683
 30
0.0
 10
3.920681489313014
 20
-9.467528893317265
 30
0.0
 10
3.920681489313014
 20
-9.467407790590922
 30
0.0
 10
3.920681489313012
 20
-9.467359370549534
 30
0.0
  0
LWPOLYLINE
  5
106
330
1F
100
AcDbEntity
  8
0
  6
Continuous
 62
     7
370
    25
100
AcDbPolyline
 90
       16
 70
   128
 43
0.0
 10
-8.2413985129
 20
-3.4855023309
 10
-8.3851251499
 20
-3.4800320619
 10
-8.5272770878
 20
-3.4636811882
 10
-8.6662968802
 20
-3.4366288534
 10
-8.8006613971
 20
-3.3991714486
 10
-8.9288985129
 20
-3.3517193649
 10
-9.0496032348
 20
-3.2947924973
 10
-9.1614530966
 20
-3.2290145484
 10
-9.2632226479
 20
-3.1551061953
 10
-9.3537968802
 20
-3.0738771933
 10
-9.4321834431
 20
-2.9862175044
 10
-9.4975235172
 20
-2.8930875464
 10
-9.5491012228
 20
-2.7955076707
 10
-9.5863514639
 20
-2.6945469828
 10
-9.608866119
 20
-2.5913116291
 10
-9.6163985129
 20
-2.4869326778
  0
LWPOLYLINE
  5
108
330
1F
100
AcDbEntity
  8
0
  6
Continuous
 62
     7
370
    25
100
AcDbPolyline
 90
       16
 70
   128
 43
0.0
 10
-8.2413985129
 20
-4.8604007159
 10
-8.3851251499
 20
-4.8549304469
 10
-8.5272770878
 20
-4.8385795732
 10
-8.6662968802
 20
-4.8115272384
 10
-8.8006613971
 20
-4.7740698336
 10
-8.9288985129
 20
-4.7266177499
 10
-9.0496032348
 20
-4.6696908823
 10
-9.1614530966
 20
-4.6039129334
 10
-9.2632226479
 20
-4.5300045803
 10
-9.3537968802
 20
-4.4487755783
 10
-9.4321834431
 20
-4.3611158894
 10
-9.4975235172
 20
-4.2679859314
 10
-9.5491012228
 20
-4.1704060557
 10
-9.5863514639
 20
-4.0694453678
 10
-9.608866119
 20
-3.9662100141
 10
-9.6163985129
 20
-3.8618310628
  0
LWPOLYLINE
  5
10D
330
1F
100
AcDbEntity
  8
0
  6
Continuous
 62
     7
370
    25
100
AcDbPolyline
 90
       16
 70
   128
 43
0.0
 10
7.5386014871
 20
-2.4869326778
 10
7.5310690932
 20
-2.5913116291
 10
7.5085544381
 20
-2.6945469828
 10
7.471304197
 20
-2.7955076707
 10
7.4197264914
 20
-2.8930875464
 10
7.3543864173
 20
-2.9862175044
 10
7.2759998544
 20
-3.0738771933
 10
7.1854256221
 20
-3.1551061953
 10
7.0836560708
 20
-3.2290145484
 10
6.971806209
 20
-3.2947924973
 10
6.8511014871
 20
-3.3517193649
 10
6.7228643713
 20
-3.3991714486
 10
6.5884998544
 20
-3.4366288534
 10
6.449480062
 20
-3.4636811882
 10
6.3073281241
 20
-3.4800320619
 10
6.1636014871
 20
-3.4855023309
  0
LWPOLYLINE
  5
10E
330
1F
100
AcDbEntity
  8
0
  6
Continuous
 62
     7
370
    25
100
AcDbPolyline
 90
       14
 70
   128
 43
0.0
 10
7.1636014871
 20
-2.4869326778
 10
7.1563103612
 20
-2.5744703295
 10
7.1345433045
 20
-2.660731485
 10
7.0986177298
 20
-2.7444582626
 10
7.0490575128
 20
-2.8244297372
 10
6.986585353
 20
-2.8994797448
 10
6.9121122353
 20
-2.9685138871
 10
6.8267241453
 20
-3.030525491
 10
6.7316662338
 20
-3.0846102876
 10
6.6283246591
 20
-3.1299795988
 10
6.5182063741
 20
-3.1659718379
 10
6.4029171514
 20
-3.192062157
 10
6.2841381674
 20
-3.2078701004
 10
6.1636014871
 20
-3.2131651528
  0
LWPOLYLINE
  5
113
330
1F
100
AcDbEntity
  8
0
  6
Continuous
 62
     7
370
    25
100
AcDbPolyline
 90
       14
 70
   128
 43
0.0
 10
-8.2413985129
 20
-3.2131651528
 10
-8.3619351932
 20
-3.2078701004
 10
-8.4807141772
 20
-3.192062157
 10
-8.5960033999
 20
-3.1659718379
 10
-8.7061216849
 20
-3.1299795988
 10
-8.8094632596
 20
-3.0846102876
 10
-8.9045211711
 20
-3.030525491
 10
-8.9899092611
 20
-2.9685138871
 10
-9.0643823788
 20
-2.8994797448
 10
-9.1268545386
 20
-2.8244297372
 10
-9.1764147556
 20
-2.7444582626
 10
-9.2123403303
 20
-2.660731485
 10
-9.234107387
 20
-2.5744703295
 10
-9.2413985129
 20
-2.4869326778
  0
LWPOLYLINE
  5
115
330
1F
100
AcDbEntity
  8
0
  6
Continuous
 62
     7
370
    25
100
AcDbPolyline
 90
       16
 70
   128
 43
0.0
 10
7.5386014871
 20
-3.8618310628
 10
7.5310690932
 20
-3.9662100141
 10
7.5085544381
 20
-4.0694453678
 10
7.471304197
 20
-4.1704060557
 10
7.4197264914
 20
-4.2679859314
 10
7.3543864173
 20
-4.3611158894
 10
7.2759998544
 20
-4.4487755783
 10
7.1854256221
 20
-4.5300045803
 10
7.0836560708
 20
-4.6039129334
 10
6.971806209
 20
-4.6696908823
 10
6.8511014871
 20
-4.7266177499
 10
6.7228643713
 20
-4.7740698336
 10
6.5884998544
 20
-4.8115272384
 10
6.449480062
 20
-4.8385795732
 10
6.3073281241
 20
-4.8549304469
 10
6.1636014871
 20
-4.8604007159
  0
SPLINE
  5
12E
330
1F
100
AcDbEntity
  8
0
  6
Continuous
 62
     7
370
    25
100
AcDbSpline
210
0.0
220
0.0
230
1.0
 70
     8
 71
     3
 72
    17
 73
    13
 74
     0
 42
0.00000001
 43
0.00000001
 40
0.0
 40
0.0
 40
0.0
 40
0.0
 40
0.1067605844316187
 40
0.2135211688632376
 40
0.3202817532948565
 40
0.4270423377264753
 40
0.5338029221580941
 40
0.6405635065897131
 40
0.7473240910213323
 40
0.8540846754529509
 40
0.9608452598845696
 40
1.0
 40
1.0
 40
1.0
 40
1.0
 10
-6.339400151431782
 20
-9.221874463278468
 30
0.0
 10
-6.382995676690621
 20
-9.20491708395666
 30
0.0
 10
-6.470186727208299
 20
-9.171002325313045
 30
0.0
 10
-6.585202446586747
 20
-9.089017998732112
 30
0.0
 10
-6.682908802298005
 20
-8.987930772142686
 30
0.0
 10
-6.758769866223223
 20
-8.8692578396649
 30
0.0
 10
-6.810113368547015
 20
-8.738171183856826
 30
0.0
 10
-6.834775221620468
 20
-8.599630129432194
 30
0.0
 10
-6.832328598526157
 20
-8.458660330921298
 30
0.0
 10
-6.800974850203244
 20
-8.321951042564969
 30
0.0
 10
-6.759946248016763
 20
-8.217826407507143
 30
0.0
 10
-6.722255308189495
 20
-8.166314746662982
 30
0.0
 10
-6.712141367393873
 20
-8.152492170456352
 30
0.0
  0
SPLINE
  5
131
330
1F
100
AcDbEntity
  8
0
  6
Continuous
 62
     7
370
    25
100
AcDbSpline
210
0.0
220
0.0
230
1.0
 70
     8
 71
     3
 72
    17
 73
    13
 74
     0
 42
0.00000001
 43
0.00000001
 40
0.0
 40
0.0
 40
0.0
 40
0.0
 40
0.1067605844316187
 40
0.2135211688632376
 40
0.3202817532948565
 40
0.4270423377264753
 40
0.5338029221580941
 40
0.6405635065897131
 40
0.7473240910213323
 40
0.8540846754529509
 40
0.9608452598845696
 40
1.0
 40
1.0
 40
1.0
 40
1.0
 10
5.160599848568219
 20
-9.221874463278468
 30
0.0
 10
5.11700432330938
 20
-9.20491708395666
 30
0.0
 10
5.0298132727917
 20
-9.171002325313045
 30
0.0
 10
4.914797553413255
 20
-9.089017998732112
 30
0.0
 10
4.817091197701992
 20
-8.987930772142686
 30
0.0
 10
4.741230133776785
 20
-8.8692578396649
 30
0.0
 10
4.689886631452986
 20
-8.738171183856826
 30
0.0
 10
4.665224778379534
 20
-8.599630129432194
 30
0.0
 10
4.667671401473841
 20
-8.458660330921298
 30
0.0
 10
4.699025149796758
 20
-8.321951042564969
 30
0.0
 10
4.740053751983242
 20
-8.217826407507143
 30
0.0
 10
4.777744691810505
 20
-8.166314746662982
 30
0.0
 10
4.787858632606127
 20
-8.152492170456352
 30
0.0
  0
SPLINE
  5
13E
330
1F
100
AcDbEntity
  8
0
  6
Continuous
 62
     7
370
    25
100
AcDbSpline
210
0.0
220
0.0
230
1.0
 70
     8
 71
     3
 72
     9
 73
     5
 74
     0
 42
0.00000001
 43
0.00000001
 40
0.0
 40
0.0
 40
0.0
 40
0.0
 40
0.5414454457093281
 40
1.0
 40
1.0
 40
1.0
 40
1.0
 10
4.451251229675905
 20
-8.543240200456351
 30
0.0
 10
4.455306384081016
 20
-8.46980132491643
 30
0.0
 10
4.462795881752938
 20
-8.334166468031247
 30
0.0
 10
4.516424781533662
 20
-8.209608701549042
 30
0.0
 10
4.541016557769712
 20
-8.152492170456352
 30
0.0
  0
SPLINE
  5
142
330
1F
100
AcDbEntity
  8
0
  6
Continuous
 62
     7
370
    25
100
AcDbSpline
210
0.0
220
0.0
230
1.0
 70
     8
 71
     3
 72
     9
 73
     5
 74
     0
 42
0.00000001
 43
0.00000001
 40
0.0
 40
0.0
 40
0.0
 40
0.0
 40
0.5414454457093281
 40
1.0
 40
1.0
 40
1.0
 40
1.0
 10
-7.048748770324097
 20
-8.543240200456351
 30
0.0
 10
-7.044693615918984
 20
-8.46980132491643
 30
0.0
 10
-7.037204118247065
 20
-8.334166468031247
 30
0.0
 10
-6.98357521846634
 20
-8.209608701549042
 30
0.0
 10
-6.95898344223029
 20
-8.152492170456352
 30
0.0
  0
LINE
  5
151
330
1F
100
AcDbEntity
  8
0
  6
Continuous
 62
     7
370
    25
100
AcDbLine
 10
-7.6001927388
 20
-9.2868402005
 30
0.0
 11
-7.5907985129
 21
-9.2868402005
 31
0.0
  0
LINE
  5
152
330
1F
100
AcDbEntity
  8
0
  6
Continuous
 62
     7
370
    25
100
AcDbLine
 10
-7.1233985129
 20
-8.2482402005
 30
0.0
 11
-7.1640985129
 21
-8.2482402005
 31
0.0
  0
LINE
  5
153
330
1F
100
AcDbEntity
  8
0
  6
Continuous
 62
     7
370
    25
100
AcDbLine
 10
-7.1640985129
 20
-8.8382402005
 30
0.0
 11
-7.1233985129
 21
-8.8382402005
 31
0.0
  0
LINE
  5
154
330
1F
100
AcDbEntity
  8
0
  6
Continuous
 62
     7
370
    25
100
AcDbLine
 10
3.8998072612
 20
-9.2868402005
 30
0.0
 11
3.9092014871
 21
-9.2868402005
 31
0.0
  0
LINE
  5
155
330
1F
100
AcDbEntity
  8
0
  6
Continuous
 62
     7
370
    25
100
AcDbLine
 10
4.3766014871
 20
-8.2482402005
 30
0.0
 11
4.3359014871
 21
-8.2482402005
 31
0.0
  0
LINE
  5
156
330
1F
100
AcDbEntity
  8
0
  6
Continuous
 62
     7
370
    25
100
AcDbLine
 10
4.3359014871
 20
-8.8382402005
 30
0.0
 11
4.3766014871
 21
-8.8382402005
 31
0.0
  0
LINE
  5
157
330
1F
100
AcDbEntity
  8
0
  6
Continuous
 62
     7
370
    25
100
AcDbLine
 10
5.1453014871
 20
-9.527492169
 30
0.0
 11
5.4427009465
 21
-9.527492169
 31
0.0
  0
LINE
  5
158
330
1F
100
AcDbEntity
  8
0
  6
Continuous
 62
     7
370
    25
100
AcDbLine
 10
-6.3546985129
 20
-9.527492169
 30
0.0
 11
-6.0572990535
 21
-9.527492169
 31
0.0
  0
LINE
  5
159
330
1F
100
AcDbEntity
  8
0
  6
Continuous
 62
     7
370
    25
100
AcDbLine
 10
-7.5204979723
 20
-9.527492169
 30
0.0
 11
-7.2230985129
 21
-9.527492169
 31
0.0
  0
LINE
  5
15A
330
1F
100
AcDbEntity
  8
0
  6
Continuous
 62
     7
370
    25
100
AcDbLine
 10
-7.5907985129
 20
-9.3262402005
 30
0.0
 11
-7.5793185107
 21
-9.4730904579
 31
0.0
  0
LINE
  5
15B
330
1F
100
AcDbEntity
  8
0
  6
Continuous
 62
     7
370
    25
100
AcDbLine
 10
3.9795020277
 20
-9.527492169
 30
0.0
 11
4.2769014871
 21
-9.527492169
 31
0.0
  0
LINE
  5
15C
330
1F
100
AcDbEntity
  8
0
  6
Continuous
 62
     7
370
    25
100
AcDbLine
 10
3.9092014871
 20
-9.3262402005
 30
0.0
 11
3.9206814893
 21
-9.4730904579
 31
0.0
  0
LINE
  5
15D
330
1F
100
AcDbEntity
  8
0
  6
Continuous
 62
     7
370
    25
100
AcDbLine
 10
-7.0843985129
 20
-8.1524921705
 30
0.0
 11
-7.0843985129
 21
-8.3520290933
 31
0.0
  0
LINE
  5
15E
330
1F
100
AcDbEntity
  8
0
  6
Continuous
 62
     7
370
    25
100
AcDbLine
 10
4.4156014871
 20
-8.1524921705
 30
0.0
 11
4.4156014871
 21
-8.3520290933
 31
0.0
  0
LINE
  5
15F
330
1F
100
AcDbEntity
  8
0
  6
Continuous
 62
     7
370
    25
100
AcDbLine
 10
7.1432014871
 20
5.4154078295
 30
0.0
 11
7.1636014871
 21
5.4154078295
 31
0.0
  0
LINE
  5
160
330
1F
100
AcDbEntity
  8
0
  6
Continuous
 62
     7
370
    25
100
AcDbLine
 10
7.1636014871
 20
5.6654078295
 30
0.0
 11
7.1432014871
 21
5.6654078295
 31
0.0
  0
LINE
  5
161
330
1F
100
AcDbEntity
  8
0
  6
Continuous
 62
     7
370
    25
100
AcDbLine
 10
-9.2209985129
 20
5.6654078295
 30
0.0
 11
-9.2413985129
 21
5.6654078295
 31
0.0
  0
LINE
  5
162
330
1F
100
AcDbEntity
  8
0
  6
Continuous
 62
     7
370
    25
100
AcDbLine
 10
-9.2413985129
 20
5.4154078295
 30
0.0
 11
-9.2209985129
 21
5.4154078295
 31
0.0
  0
LINE
  5
163
330
1F
100
AcDbEntity
  8
0
  6
Continuous
 62
     7
370
    25
100
AcDbLine
 10
7.1432014871
 20
6.0404078295
 30
0.0
 11
7.0807014871
 21
6.0404078295
 31
0.0
  0
LINE
  5
164
330
1F
100
AcDbEntity
  8
0
  6
Continuous
 62
     7
370
    25
100
AcDbLine
 10
7.0807014871
 20
5.0404078295
 30
0.0
 11
7.1432014871
 21
5.0404078295
 31
0.0
  0
LINE
  5
165
330
1F
100
AcDbEntity
  8
0
  6
Continuous
 62
     7
370
    25
100
AcDbLine
 10
-9.1584985129
 20
6.0404078295
 30
0.0
 11
-9.2209985129
 21
6.0404078295
 31
0.0
  0
LINE
  5
166
330
1F
100
AcDbEntity
  8
0
  6
Continuous
 62
     7
370
    25
100
AcDbLine
 10
-9.2209985129
 20
5.0404078295
 30
0.0
 11
-9.1584985129
 21
5.0404078295
 31
0.0
  0
LINE
  5
167
330
1F
100
AcDbEntity
  8
0
  6
Continuous
 62
     7
370
    25
100
AcDbLine
 10
-9.9913985129
 20
5.8644235776
 30
0.0
 11
-10.0201386704
 21
5.8356834201
 31
0.0
  0
LINE
  5
168
330
1F
100
AcDbEntity
  8
0
  6
Continuous
 62
     7
370
    25
100
AcDbLine
 10
-10.0201386704
 20
5.245132239
 30
0.0
 11
-9.9913985129
 21
5.2163920815
 31
0.0
  0
LINE
  5
169
330
1F
100
AcDbEntity
  8
0
  6
Continuous
 62
     7
370
    25
100
AcDbLine
 10
7.9136014871
 20
5.2163920815
 30
0.0
 11
7.9423416446
 21
5.245132239
 31
0.0
  0
LINE
  5
16A
330
1F
100
AcDbEntity
  8
0
  6
Continuous
 62
     7
370
    25
100
AcDbLine
 10
7.9423416446
 20
5.8356834201
 30
0.0
 11
7.9136014871
 21
5.8644235776
 31
0.0
  0
LINE
  5
16B
330
1F
100
AcDbEntity
  8
0
  6
Continuous
 62
     7
370
    25
100
AcDbLine
 10
-9.2413985129
 20
6.5404078295
 30
0.0
 11
-9.9288985129
 21
6.5404078295
 31
0.0
  0
LINE
  5
16C
330
1F
100
AcDbEntity
  8
0
  6
Continuous
 62
     7
370
    25
100
AcDbLine
 10
7.8511014871
 20
6.5404078295
 30
0.0
 11
7.1636014871
 21
6.5404078295
 31
0.0
  0
LINE
  5
16D
330
1F
100
AcDbEntity
  8
0
  6
Continuous
 62
     7
370
    25
100
AcDbLine
 10
-9.9288985129
 20
4.5404078295
 30
0.0
 11
-9.6163985129
 21
4.5404078295
 31
0.0
  0
LINE
  5
16E
330
1F
100
AcDbEntity
  8
0
  6
Continuous
 62
     7
370
    25
100
AcDbLine
 10
7.5386014871
 20
4.5404078295
 30
0.0
 11
7.8511014871
 21
4.5404078295
 31
0.0
  0
LINE
  5
16F
330
1F
100
AcDbEntity
  8
0
  6
Continuous
 62
     7
370
    25
100
AcDbLine
 10
7.0807014871
 20
9.2825078295
 30
0.0
 11
7.0807014871
 21
-2.7764505073
 31
0.0
  0
LINE
  5
170
330
1F
100
AcDbEntity
  8
0
  6
Continuous
 62
     7
370
    25
100
AcDbLine
 10
7.0807014871
 20
-4.605839341
 30
0.0
 11
7.0807014871
 21
-8.1524921705
 31
0.0
  0
LINE
  5
171
330
1F
100
AcDbEntity
  8
0
  6
Continuous
 62
     7
370
    25
100
AcDbLine
 10
-7.4138985129
 20
9.2825078295
 30
0.0
 11
-7.4138985129
 21
-3.2131651528
 31
0.0
  0
LINE
  5
172
330
1F
100
AcDbEntity
  8
0
  6
Continuous
 62
     7
370
    25
100
AcDbLine
 10
-7.4138985129
 20
-4.8604007159
 30
0.0
 11
-7.4138985129
 21
-8.1524921705
 31
0.0
  0
LINE
  5
173
330
1F
100
AcDbEntity
  8
0
  6
Continuous
 62
     7
370
    25
100
AcDbLine
 10
-9.1584985129
 20
9.2825078295
 30
0.0
 11
-9.1584985129
 21
-2.7764505073
 31
0.0
  0
LINE
  5
174
330
1F
100
AcDbEntity
  8
0
  6
Continuous
 62
     7
370
    25
100
AcDbLine
 10
-9.1584985129
 20
-4.605839341
 30
0.0
 11
-9.1584985129
 21
-8.1524921705
 31
0.0
  0
LINE
  5
175
330
1F
100
AcDbEntity
  8
0
  6
Continuous
 62
     7
370
    25
100
AcDbLine
 10
7.0807014871
 20
9.2825078295
 30
0.0
 11
-9.1584985129
 21
9.2825078295
 31
0.0
  0
LINE
  5
176
330
1F
100
AcDbEntity
  8
0
  6
Continuous
 62
     7
370
    25
100
AcDbLine
 10
7.0807014871
 20
-8.1524921705
 30
0.0
 11
-9.1584985129
 21
-8.1524921705
 31
0.0
  0
LINE
  5
177
330
1F
100
AcDbEntity
  8
0
  6
Continuous
 62
     7
370
    25
100
AcDbLine
 10
-7.4486985129
 20
9.2825078295
 30
0.0
 11
-7.4486985129
 21
-3.2131651528
 31
0.0
  0
LINE
  5
178
330
1F
100
AcDbEntity
  8
0
  6
Continuous
 62
     7
370
    25
100
AcDbLine
 10
-7.4486985129
 20
-4.8604007159
 30
0.0
 11
-7.4486985129
 21
-8.1524921705
 31
0.0
  0
LINE
  5
179
330
1F
100
AcDbEntity
  8
0
  6
Continuous
 62
     7
370
    25
100
AcDbLine
 10
-6.3486835499
 20
-9.250445826
 30
0.0
 11
-6.1949166935
 21
-8.7772001035
 31
0.0
  0
LINE
  5
17A
330
1F
100
AcDbEntity
  8
0
  6
Continuous
 62
     7
370
    25
100
AcDbLine
 10
5.1513164501
 20
-9.250445826
 30
0.0
 11
5.3050833065
 21
-8.7772001035
 31
0.0
  0
LINE
  5
17B
330
1F
100
AcDbEntity
  8
0
  6
Continuous
 62
     7
370
    25
100
AcDbLine
 10
-7.5907985129
 20
-8.1524921705
 30
0.0
 11
-7.5907985129
 21
-9.3262402005
 31
0.0
  0
LINE
  5
17C
330
1F
100
AcDbEntity
  8
0
  6
Continuous
 62
     7
370
    25
100
AcDbLine
 10
-7.6001927388
 20
-8.5432402005
 30
0.0
 11
-7.5793185107
 21
-8.5432402005
 31
0.0
  0
LINE
  5
17D
330
1F
100
AcDbEntity
  8
0
  6
Continuous
 62
     7
370
    25
100
AcDbLine
 10
-7.6947985129
 20
-8.2972402005
 30
0.0
 11
-7.6947985129
 21
-8.7892402005
 31
0.0
  0
LINE
  5
17E
330
1F
100
AcDbEntity
  8
0
  6
Continuous
 62
     7
370
    25
100
AcDbLine
 10
3.9092014871
 20
-8.1524921705
 30
0.0
 11
3.9092014871
 21
-9.3262402005
 31
0.0
  0
LINE
  5
17F
330
1F
100
AcDbEntity
  8
0
  6
Continuous
 62
     7
370
    25
100
AcDbLine
 10
3.8998072612
 20
-8.5432402005
 30
0.0
 11
3.9206814893
 21
-8.5432402005
 31
0.0
  0
LINE
  5
180
330
1F
100
AcDbEntity
  8
0
  6
Continuous
 62
     7
370
    25
100
AcDbLine
 10
3.8052014871
 20
-8.2972402005
 30
0.0
 11
3.8052014871
 21
-8.7892402005
 31
0.0
  0
LINE
  5
181
330
1F
100
AcDbEntity
  8
0
  6
Continuous
 62
     7
370
    25
100
AcDbLine
 10
4.5981014871
 20
-8.5432402005
 30
0.0
 11
4.4512512297
 21
-8.5432402005
 31
0.0
  0
LINE
  5
182
330
1F
100
AcDbEntity
  8
0
  6
Continuous
 62
     7
370
    25
100
AcDbLine
 10
6.1641014871
 20
-8.5432402005
 30
0.0
 11
6.3109517445
 21
-8.5432402005
 31
0.0
  0
LINE
  5
183
330
1F
100
AcDbEntity
  8
0
  6
Continuous
 62
     7
370
    25
100
AcDbLine
 10
5.0769509021
 20
-9.4793194488
 30
0.0
 11
5.0937619553
 21
-9.427580347
 31
0.0
  0
LINE
  5
184
330
1F
100
AcDbEntity
  8
0
  6
Continuous
 62
     7
370
    25
100
AcDbLine
 10
-6.9018985129
 20
-8.5432402005
 30
0.0
 11
-7.0487487703
 21
-8.5432402005
 31
0.0
  0
LINE
  5
185
330
1F
100
AcDbEntity
  8
0
  6
Continuous
 62
     7
370
    25
100
AcDbLine
 10
-5.3358985129
 20
-8.5432402005
 30
0.0
 11
-5.1890482555
 21
-8.5432402005
 31
0.0
  0
LINE
  5
186
330
1F
100
AcDbEntity
  8
0
  6
Continuous
 62
     7
370
    25
100
AcDbLine
 10
-6.4230490979
 20
-9.4793194488
 30
0.0
 11
-6.4062380447
 21
-9.427580347
 31
0.0
  0
LINE
  5
187
330
1F
100
AcDbEntity
  8
0
  6
Continuous
 62
     7
370
    25
100
AcDbLine
 10
-7.5204979723
 20
-8.5432402005
 30
0.0
 11
-7.2230985129
 21
-8.5432402005
 31
0.0
  0
LINE
  5
188
330
1F
100
AcDbEntity
  8
0
  6
Continuous
 62
     7
370
    25
100
AcDbLine
 10
3.9795020277
 20
-8.5432402005
 30
0.0
 11
4.2769014871
 21
-8.5432402005
 31
0.0
  0
LINE
  5
189
330
1F
100
AcDbEntity
  8
0
  6
Continuous
 62
     7
370
    25
100
AcDbLine
 10
4.3766014871
 20
-8.1524921705
 30
0.0
 11
4.3766014871
 21
-8.9704921764
 31
0.0
  0
LINE
  5
18A
330
1F
100
AcDbEntity
  8
0
  6
Continuous
 62
     7
370
    25
100
AcDbLine
 10
4.4944179519
 20
-8.9704921705
 30
0.0
 11
4.3766014871
 21
-8.9704921705
 31
0.0
  0
LINE
  5
18B
330
1F
100
AcDbEntity
  8
0
  6
Continuous
 62
     7
370
    25
100
AcDbLine
 10
-7.0055820481
 20
-8.9704921705
 30
0.0
 11
-7.1233985129
 21
-8.9704921705
 31
0.0
  0
LINE
  5
18C
330
1F
100
AcDbEntity
  8
0
  6
Continuous
 62
     7
370
    25
100
AcDbLine
 10
-7.1233985129
 20
-8.1524921705
 30
0.0
 11
-7.1233985129
 21
-8.9704921764
 31
0.0
  0
LINE
  5
18D
330
1F
100
AcDbEntity
  8
0
  6
Continuous
 62
     7
370
    25
100
AcDbLine
 10
7.1432014871
 20
5.0404078295
 30
0.0
 11
7.1432014871
 21
6.0404078295
 31
0.0
  0
LINE
  5
18E
330
1F
100
AcDbEntity
  8
0
  6
Continuous
 62
     7
370
    25
100
AcDbLine
 10
-9.2209985129
 20
5.0404078295
 30
0.0
 11
-9.2209985129
 21
6.0404078295
 31
0.0
  0
LINE
  5
18F
330
1F
100
AcDbEntity
  8
0
  6
Continuous
 62
     7
370
    25
100
AcDbLine
 10
-10.0201386704
 20
5.8356834201
 30
0.0
 11
-10.0201386704
 21
5.245132239
 31
0.0
  0
LINE
  5
190
330
1F
100
AcDbEntity
  8
0
  6
Continuous
 62
     7
370
    25
100
AcDbLine
 10
7.9423416446
 20
5.245132239
 30
0.0
 11
7.9423416446
 21
5.8356834201
 31
0.0
  0
LINE
  5
191
330
1F
100
AcDbEntity
  8
0
  6
Continuous
 62
     7
370
    25
100
AcDbLine
 10
-9.6163985129
 20
-3.8618310628
 30
0.0
 11
-9.6163985129
 21
6.5404078295
 31
0.0
  0
LINE
  5
192
330
1F
100
AcDbEntity
  8
0
  6
Continuous
 62
     7
370
    25
100
AcDbLine
 10
-8.2413985129
 20
-3.2131651528
 30
0.0
 11
-8.2413985129
 21
-4.8604007159
 31
0.0
  0
LINE
  5
193
330
1F
100
AcDbEntity
  8
0
  6
Continuous
 62
     7
370
    25
100
AcDbLine
 10
6.1636014871
 20
-3.2131651528
 30
0.0
 11
6.1636014871
 21
-4.8604007159
 31
0.0
  0
LINE
  5
194
330
1F
100
AcDbEntity
  8
0
  6
Continuous
 62
     7
370
    25
100
AcDbLine
 10
6.1636014871
 20
-3.4855023309
 30
0.0
 11
-8.2413985129
 21
-3.4855023309
 31
0.0
  0
LINE
  5
195
330
1F
100
AcDbEntity
  8
0
  6
Continuous
 62
     7
370
    25
100
AcDbLine
 10
6.1636014871
 20
-3.2131651528
 30
0.0
 11
-8.2413985129
 21
-3.2131651528
 31
0.0
  0
LINE
  5
196
330
1F
100
AcDbEntity
  8
0
  6
Continuous
 62
     7
370
    25
100
AcDbLine
 10
7.1636014871
 20
-2.4869326778
 30
0.0
 11
7.5386014871
 21
-2.4869326778
 31
0.0
  0
LINE
  5
197
330
1F
100
AcDbEntity
  8
0
  6
Continuous
 62
     7
370
    25
100
AcDbLine
 10
6.1636014871
 20
-4.8604007159
 30
0.0
 11
-8.2413985129
 21
-4.8604007159
 31
0.0
  0
LINE
  5
198
330
1F
100
AcDbEntity
  8
0
  6
Continuous
 62
     7
370
    25
100
AcDbLine
 10
-9.6163985129
 20
-2.4869326778
 30
0.0
 11
-9.2413985129
 21
-2.4869326778
 31
0.0
  0
LINE
  5
199
330
1F
100
AcDbEntity
  8
0
  6
Continuous
 62
     7
370
    25
100
AcDbLine
 10
7.5386014871
 20
6.5404078295
 30
0.0
 11
7.5386014871
 21
-3.8618310628
 31
0.0
  0
LINE
  5
19A
330
1F
100
AcDbEntity
  8
0
  6
Continuous
 62
     7
370
    25
100
AcDbLine
 10
-9.2413985129
 20
6.227857022
 30
0.0
 11
-9.6163985129
 21
6.227857022
 31
0.0
  0
LINE
  5
19B
330
1F
100
AcDbEntity
  8
0
  6
Continuous
 62
     7
370
    25
100
AcDbLine
 10
-9.2413985129
 20
-2.4869326778
 30
0.0
 11
-9.2413985129
 21
6.5404078295
 31
0.0
  0
LINE
  5
19C
330
1F
100
AcDbEntity
  8
0
  6
Continuous
 62
     7
370
    25
100
AcDbLine
 10
7.5386014871
 20
6.227857022
 30
0.0
 11
7.1636014871
 21
6.227857022
 31
0.0
  0
LINE
  5
19D
330
1F
100
AcDbEntity
  8
0
  6
Continuous
 62
     7
370
    25
100
AcDbLine
 10
7.1636014871
 20
6.5404078295
 30
0.0
 11
7.1636014871
 21
-2.4869326778
 31
0.0
  0
LINE
  5
19E
330
1F
100
AcDbEntity
  8
0
  6
Continuous
 62
     7
370
    25
100
AcDbLine
 10
-9.9913985129
 20
4.6029078295
 30
0.0
 11
-9.9913985129
 21
6.4779078295
 31
0.0
  0
LINE
  5
19F
330
1F
100
AcDbEntity
  8
0
  6
Continuous
 62
     7
370
    25
100
AcDbLine
 10
7.9136014871
 20
6.4779078295
 30
0.0
 11
7.9136014871
 21
4.6029078295
 31
0.0
  0
LINE
  5
1A0
330
1F
100
AcDbEntity
  8
0
  6
Continuous
 62
     7
370
    25
100
AcDbLine
 10
5.5209014871
 20
9.2825078295
 30
0.0
 11
5.5209014871
 21
-3.2131651528
 31
0.0
  0
LINE
  5
1A1
330
1F
100
AcDbEntity
  8
0
  6
Continuous
 62
     7
370
    25
100
AcDbLine
 10
5.5209014871
 20
-4.8604007159
 30
0.0
 11
5.5209014871
 21
-8.1524921705
 31
0.0
  0
LINE
  5
1A2
330
1F
100
AcDbEntity
  8
0
  6
Continuous
 62
     7
370
    25
100
AcDbLine
 10
-7.3510985129
 20
9.2825078295
 30
0.0
 11
-7.3510985129
 21
-3.2131651528
 31
0.0
  0
LINE
  5
1A3
330
1F
100
AcDbEntity
  8
0
  6
Continuous
 62
     7
370
    25
100
AcDbLine
 10
-7.3510985129
 20
-4.8604007159
 30
0.0
 11
-7.3510985129
 21
-8.1524921705
 31
0.0
  0
LINE
  5
1A4
330
1F
100
AcDbEntity
  8
0
  6
Continuous
 62
     7
370
    25
100
AcDbLine
 10
-7.5986985129
 20
9.2825078295
 30
0.0
 11
-7.5986985129
 21
-3.2131651528
 31
0.0
  0
LINE
  5
1A5
330
1F
100
AcDbEntity
  8
0
  6
Continuous
 62
     7
370
    25
100
AcDbLine
 10
-7.5986985129
 20
-4.8604007159
 30
0.0
 11
-7.5986985129
 21
-8.1524921705
 31
0.0
  0
LINE
  5
1A6
330
1F
100
AcDbEntity
  8
0
  6
Continuous
 62
     7
370
    25
100
AcDbLine
 10
-7.4168985129
 20
9.2825078295
 30
0.0
 11
-7.4168985129
 21
-3.2131651528
 31
0.0
  0
LINE
  5
1A7
330
1F
100
AcDbEntity
  8
0
  6
Continuous
 62
     7
370
    25
100
AcDbLine
 10
-7.4168985129
 20
-4.8604007159
 30
0.0
 11
-7.4168985129
 21
-8.1524921705
 31
0.0
  0
LINE
  5
1A8
330
1F
100
AcDbEntity
  8
0
  6
Continuous
 62
     7
370
    25
100
AcDbLine
 10
-5.9919367817
 20
-8.1524921705
 30
0.0
 11
-6.0428803323
 21
-8.3092802974
 31
0.0
  0
LINE
  5
1A9
330
1F
100
AcDbEntity
  8
0
  6
Continuous
 62
     7
370
    25
100
AcDbLine
 10
5.5080632183
 20
-8.1524921705
 30
0.0
 11
5.4571196677
 21
-8.3092802974
 31
0.0
  0
LINE
  5
1AA
330
1F
100
AcDbEntity
  8
0
  6
Continuous
 62
     7
370
    25
100
AcDbLine
 10
-7.6001927388
 20
-8.1524921705
 30
0.0
 11
-7.6001927388
 21
-9.2868402005
 31
0.0
  0
LINE
  5
1AB
330
1F
100
AcDbEntity
  8
0
  6
Continuous
 62
     7
370
    25
100
AcDbLine
 10
-7.1640985129
 20
-8.5432402005
 30
0.0
 11
-7.1233985129
 21
-8.5432402005
 31
0.0
  0
LINE
  5
1AC
330
1F
100
AcDbEntity
  8
0
  6
Continuous
 62
     7
370
    25
100
AcDbLine
 10
3.8998072612
 20
-8.1524921705
 30
0.0
 11
3.8998072612
 21
-9.2868402005
 31
0.0
  0
LINE
  5
1AD
330
1F
100
AcDbEntity
  8
0
  6
Continuous
 62
     7
370
    25
100
AcDbLine
 10
4.3359014871
 20
-8.5432402005
 30
0.0
 11
4.3766014871
 21
-8.5432402005
 31
0.0
  0
LINE
  5
1AE
330
1F
100
AcDbEntity
  8
0
  6
Continuous
 62
     7
370
    25
100
AcDbLine
 10
5.1453014871
 20
-9.527492169
 30
0.0
 11
5.1453014871
 21
-9.4988291798
 31
0.0
  0
LINE
  5
1AF
330
1F
100
AcDbEntity
  8
0
  6
Continuous
 62
     7
370
    25
100
AcDbLine
 10
5.4427009465
 20
-9.527492169
 30
0.0
 11
5.4427009465
 21
-9.5255626751
 31
0.0
  0
LINE
  5
1B0
330
1F
100
AcDbEntity
  8
0
  6
Continuous
 62
     7
370
    25
100
AcDbLine
 10
-6.3546985129
 20
-9.527492169
 30
0.0
 11
-6.3546985129
 21
-9.4988291798
 31
0.0
  0
LINE
  5
1B1
330
1F
100
AcDbEntity
  8
0
  6
Continuous
 62
     7
370
    25
100
AcDbLine
 10
-6.0572990535
 20
-9.527492169
 30
0.0
 11
-6.0572990535
 21
-9.5255626751
 31
0.0
  0
LINE
  5
1B2
330
1F
100
AcDbEntity
  8
0
  6
Continuous
 62
     7
370
    25
100
AcDbLine
 10
-7.5204979723
 20
-8.1524921705
 30
0.0
 11
-7.5204979723
 21
-9.527492169
 31
0.0
  0
LINE
  5
1B3
330
1F
100
AcDbEntity
  8
0
  6
Continuous
 62
     7
370
    25
100
AcDbLine
 10
-7.5793185107
 20
-8.1524921705
 30
0.0
 11
-7.5793185107
 21
-8.5432402005
 31
0.0
  0
LINE
  5
1B4
330
1F
100
AcDbEntity
  8
0
  6
Continuous
 62
     7
370
    25
100
AcDbLine
 10
-7.2230985129
 20
-8.1524921705
 30
0.0
 11
-7.2230985129
 21
-9.527492169
 31
0.0
  0
LINE
  5
1B5
330
1F
100
AcDbEntity
  8
0
  6
Continuous
 62
     7
370
    25
100
AcDbLine
 10
4.2769014871
 20
-8.1524921705
 30
0.0
 11
4.2769014871
 21
-9.527492169
 31
0.0
  0
LINE
  5
1B6
330
1F
100
AcDbEntity
  8
0
  6
Continuous
 62
     7
370
    25
100
AcDbLine
 10
3.9795020277
 20
-8.1524921705
 30
0.0
 11
3.9795020277
 21
-9.527492169
 31
0.0
  0
LINE
  5
1B7
330
1F
100
AcDbEntity
  8
0
  6
Continuous
 62
     7
370
    25
100
AcDbLine
 10
3.9206814893
 20
-8.1524921705
 30
0.0
 11
3.9206814893
 21
-8.5432402005
 31
0.0
  0
LINE
  5
1B8
330
1F
100
AcDbEntity
  8
0
  6
Continuous
 62
     7
370
    25
100
AcDbLine
 10
-9.9288985129
 20
4.5404078295
 30
0.0
 11
-9.9288985129
 21
6.5404078295
 31
0.0
  0
LINE
  5
1B9
330
1F
100
AcDbEntity
  8
0
  6
Continuous
 62
     7
370
    25
100
AcDbLine
 10
7.8511014871
 20
6.5404078295
 30
0.0
 11
7.8511014871
 21
4.5404078295
 31
0.0
  0
ARC
  5
1BA
330
1F
100
AcDbEntity
  8
0
  6
Continuous
 62
     7
370
    25
100
AcDbCircle
 10
-7.6001927388
 20
-9.2474402005
 30
0.0
 40
0.0393999999999899
100
AcDbArc
 50
193.7402199829
 51
270.0
  0
ARC
  5
1BB
330
1F
100
AcDbEntity
  8
0
  6
Continuous
 62
     7
370
    25
100
AcDbCircle
 10
-5.7262985129
 20
-8.7892402005
 30
0.0
 40
1.968499999999982
100
AcDbArc
 50
180.0
 51
193.7402199829
  0
ARC
  5
1BC
330
1F
100
AcDbEntity
  8
0
  6
Continuous
 62
     7
370
    25
100
AcDbCircle
 10
-5.7262985129
 20
-8.2972402005
 30
0.0
 40
1.968499999998153
100
AcDbArc
 50
175.7831124183
 51
180.0
  0
ARC
  5
1BD
330
1F
100
AcDbEntity
  8
0
  6
Continuous
 62
     7
370
    25
100
AcDbCircle
 10
3.8998072612
 20
-9.2474402005
 30
0.0
 40
0.0393999999999917
100
AcDbArc
 50
193.7402199829
 51
270.0
  0
ARC
  5
1BE
330
1F
100
AcDbEntity
  8
0
  6
Continuous
 62
     7
370
    25
100
AcDbCircle
 10
5.7737014871
 20
-8.7892402005
 30
0.0
 40
1.968500000000006
100
AcDbArc
 50
180.0
 51
193.7402199829
  0
ARC
  5
1BF
330
1F
100
AcDbEntity
  8
0
  6
Continuous
 62
     7
370
    25
100
AcDbCircle
 10
5.7737014871
 20
-8.2972402005
 30
0.0
 40
1.968499999998766
100
AcDbArc
 50
175.7831124183
 51
180.0
  0
ARC
  5
1C0
330
1F
100
AcDbEntity
  8
0
  6
Continuous
 62
     7
370
    25
100
AcDbCircle
 10
5.1453014871
 20
-9.468492169
 30
0.0
 40
0.0590000000000034
100
AcDbArc
 50
194.096626088
 51
270.0
  0
ARC
  5
1C1
330
1F
100
AcDbEntity
  8
0
  6
Continuous
 62
     7
370
    25
100
AcDbCircle
 10
-6.3546985129
 20
-9.468492169
 30
0.0
 40
0.05900000000001
100
AcDbArc
 50
194.0966260877
 51
270.0
  0
ARC
  5
1C2
330
1F
100
AcDbEntity
  8
0
  6
Continuous
 62
     7
370
    25
100
AcDbCircle
 10
-7.5204979723
 20
-9.468492169
 30
0.0
 40
0.0590000000000187
100
AcDbArc
 50
184.47
 51
270.0
  0
ARC
  5
1C3
330
1F
100
AcDbEntity
  8
0
  6
Continuous
 62
     7
370
    25
100
AcDbCircle
 10
-7.2230985129
 20
-9.468492169
 30
0.0
 40
0.0590000000000064
100
AcDbArc
 50
270.0
 51
360.0
  0
ARC
  5
1C4
330
1F
100
AcDbEntity
  8
0
  6
Continuous
 62
     7
370
    25
100
AcDbCircle
 10
4.2769014871
 20
-9.468492169
 30
0.0
 40
0.0590000000000064
100
AcDbArc
 50
270.0
 51
360.0
  0
ARC
  5
1C5
330
1F
100
AcDbEntity
  8
0
  6
Continuous
 62
     7
370
    25
100
AcDbCircle
 10
3.9795020277
 20
-9.468492169
 30
0.0
 40
0.0590000000000153
100
AcDbArc
 50
184.47
 51
270.0
  0
ARC
  5
1C6
330
1F
100
AcDbEntity
  8
0
  6
Continuous
 62
     7
370
    25
100
AcDbCircle
 10
-9.9288985129
 20
4.6029078295
 30
0.0
 40
0.0625000000000036
100
AcDbArc
 50
180.0
 51
270.0
  0
ARC
  5
1C7
330
1F
100
AcDbEntity
  8
0
  6
Continuous
 62
     7
370
    25
100
AcDbCircle
 10
-9.9288985129
 20
6.4779078295
 30
0.0
 40
0.0624999999999982
100
AcDbArc
 50
90.0
 51
180.0
  0
ARC
  5
1C8
330
1F
100
AcDbEntity
  8
0
  6
Continuous
 62
     7
370
    25
100
AcDbCircle
 10
7.8511014871
 20
6.4779078295
 30
0.0
 40
0.0625
100
AcDbArc
 50
0.0
 51
90.0
  0
ARC
  5
1C9
330
1F
100
AcDbEntity
  8
0
  6
Continuous
 62
     7
370
    25
100
AcDbCircle
 10
7.8511014871
 20
4.6029078295
 30
0.0
 40
0.0625000000000018
100
AcDbArc
 50
270.0
 51
0.0
  0
ARC
  5
1CA
330
1F
100
AcDbEntity
  8
0
  6
Continuous
 62
     7
370
    25
100
AcDbCircle
 10
-6.1188985129
 20
-8.5432402005
 30
0.0
 40
0.2460000000000013
100
AcDbArc
 50
72.0
 51
0.0
  0
ARC
  5
1CB
330
1F
100
AcDbEntity
  8
0
  6
Continuous
 62
     7
370
    25
100
AcDbCircle
 10
-6.1188985129
 20
-8.5432402005
 30
0.0
 40
0.7436000000000214
100
AcDbArc
 50
148.2993379594
 51
31.7006620406
  0
ARC
  5
1CC
330
1F
100
AcDbEntity
  8
0
  6
Continuous
 62
     7
370
    25
100
AcDbCircle
 10
-6.1188985129
 20
-8.5432402005
 30
0.0
 40
0.7829999999999926
100
AcDbArc
 50
150.0635172784
 51
29.9364827216
  0
ARC
  5
1CD
330
1F
100
AcDbEntity
  8
0
  6
Continuous
 62
     7
370
    25
100
AcDbCircle
 10
5.3811014871
 20
-8.5432402005
 30
0.0
 40
0.2460000000000004
100
AcDbArc
 50
0.0
 51
252.0
  0
ARC
  5
1CE
330
1F
100
AcDbEntity
  8
0
  6
Continuous
 62
     7
370
    25
100
AcDbCircle
 10
5.3811014871
 20
-8.5432402005
 30
0.0
 40
0.7436000000000298
100
AcDbArc
 50
148.2993379594
 51
31.7006620406
  0
ARC
  5
1CF
330
1F
100
AcDbEntity
  8
0
  6
Continuous
 62
     7
370
    25
100
AcDbCircle
 10
5.3811014871
 20
-8.5432402005
 30
0.0
 40
0.7829999999999908
100
AcDbArc
 50
150.0635172784
 51
29.9364827216
  0
ARC
  5
1D0
330
1F
100
AcDbEntity
  8
0
  6
Continuous
 62
     7
370
    25
100
AcDbCircle
 10
5.3811014871
 20
-8.5432402005
 30
0.0
 40
0.9298502574217178
100
AcDbArc
 50
180.0
 51
24.8489093098
  0
ARC
  5
1D1
330
1F
100
AcDbEntity
  8
0
  6
Continuous
 62
     7
370
    25
100
AcDbCircle
 10
5.3811014871
 20
-8.5432402005
 30
0.0
 40
0.9842519685039467
100
AcDbArc
 50
156.6092326431
 51
23.3907673569
  0
ARC
  5
1D2
330
1F
100
AcDbEntity
  8
0
  6
Continuous
 62
     7
370
    25
100
AcDbCircle
 10
-6.1188985129
 20
-8.5432402005
 30
0.0
 40
0.9298502574217231
100
AcDbArc
 50
180.0
 51
24.8489093098
  0
ARC
  5
1D3
330
1F
100
AcDbEntity
  8
0
  6
Continuous
 62
     7
370
    25
100
AcDbCircle
 10
-6.1188985129
 20
-8.5432402005
 30
0.0
 40
0.9842519685039112
100
AcDbArc
 50
156.6092326431
 51
23.3907673569
  0
ARC
  5
1D4
330
1F
100
AcDbEntity
  8
0
  6
Continuous
 62
     7
370
    25
100
AcDbCircle
 10
-6.1188985129
 20
-8.5432402005
 30
0.0
 40
0.2440000000000015
100
AcDbArc
 50
0.0
 51
180.0
  0
ARC
  5
1D5
330
1F
100
AcDbEntity
  8
0
  6
Continuous
 62
     7
370
    25
100
AcDbCircle
 10
5.3811014871
 20
-8.5432402005
 30
0.0
 40
0.2440000000000015
100
AcDbArc
 50
0.0
 51
180.0
  0
ARC
  5
1D6
330
1F
100
AcDbEntity
  8
0
  6
Continuous
 62
     7
370
    25
100
AcDbCircle
 10
-6.1188985129
 20
-8.5432402005
 30
0.0
 40
0.7135582914312418
100
AcDbArc
 50
252.0
 51
33.2028550273
  0
ARC
  5
1D7
330
1F
100
AcDbEntity
  8
0
  6
Continuous
 62
     7
370
    25
100
AcDbCircle
 10
5.3811014871
 20
-8.5432402005
 30
0.0
 40
0.7135582914312422
100
AcDbArc
 50
252.0
 51
33.2028550273
  0
ARC
  5
1D8
330
1F
100
AcDbEntity
  8
0
  6
Continuous
 62
     7
370
    25
100
AcDbCircle
 10
-5.9136611172
 20
-8.3092927461
 30
0.0
 40
1.78113739578816
100
AcDbArc
 50
174.9494877822
 51
179.9995995522
  0
ARC
  5
1D9
330
1F
100
AcDbEntity
  8
0
  6
Continuous
 62
     7
370
    25
100
AcDbCircle
 10
5.5863388828
 20
-8.3092927461
 30
0.0
 40
1.781137395788029
100
AcDbArc
 50
174.9494877822
 51
179.9995995522
  0
SPLINE
  5
231
330
1B
100
AcDbEntity
 67
     1
  8
0
  6
Continuous
 62
     7
370
    25
100
AcDbSpline
210
0.0
220
0.0
230
1.0
 70
    24
 71
     3
 72
     9
 73
     5
 74
     0
 42
0.00000001
 43
0.00000001
 40
0.0
 40
0.0
 40
0.0
 40
0.0
 40
0.249806886880846
 40
1.0
 40
1.0
 40
1.0
 40
1.0
 10
-4.729942901717759
 20
-9.467366458044621
 30
0.0
 10
-4.729942901717759
 20
-9.469029165884512
 30
0.0
 10
-4.729942901717759
 20
-9.475685138666735
 30
0.0
 10
-4.729942901717759
 20
-9.448199719286357
 30
0.0
 10
-4.729942901717759
 20
-9.427580346956004
 30
0.0
  0
SPLINE
  5
232
330
1B
100
AcDbEntity
 67
     1
  8
0
  6
Continuous
 62
     7
370
    25
100
AcDbSpline
210
0.0
220
0.0
230
1.0
 70
    24
 71
     3
 72
     9
 73
     5
 74
     0
 42
0.00000001
 43
0.00000001
 40
0.0
 40
0.0
 40
0.0
 40
0.0
 40
0.3750603001095233
 40
1.0
 40
1.0
 40
1.0
 40
1.0
 10
-5.145162899502375
 20
-9.464216003388803
 30
0.0
 10
-5.145162899502375
 20
-9.464828279523726
 30
0.0
 10
-5.145162899502375
 20
-9.466460753381245
 30
0.0
 10
-5.145162899502372
 20
-9.43984214158462
 30
0.0
 10
-5.145162899502375
 20
-9.42320711431694
 30
0.0
  0
CIRCLE
  5
238
330
1B
100
AcDbEntity
 67
     1
  8
0
  6
Continuous
 62
     7
370
    25
100
AcDbCircle
 10
0.0922371005
 20
5.5404078295
 30
0.0
 40
0.3346456692913377
  0
CIRCLE
  5
239
330
1B
100
AcDbEntity
 67
     1
  8
0
  6
Continuous
 62
     7
370
    25
100
AcDbCircle
 10
0.0922371005
 20
5.5404078295
 30
0.0
 40
0.2952755905511804
  0
CIRCLE
  5
246
330
1B
100
AcDbEntity
 67
     1
  8
0
  6
Continuous
 62
     7
370
    25
100
AcDbCircle
 10
0.0922371005
 20
5.5404078295
 30
0.0
 40
0.937500000000001
  0
CIRCLE
  5
247
330
1B
100
AcDbEntity
 67
     1
  8
0
  6
Continuous
 62
     7
370
    25
100
AcDbCircle
 10
0.0922371005
 20
5.5404078295
 30
0.0
 40
0.3750000000000019
  0
CIRCLE
  5
248
330
1B
100
AcDbEntity
 67
     1
  8
0
  6
Continuous
 62
     7
370
    25
100
AcDbCircle
 10
0.0922371005
 20
5.5404078295
 30
0.0
 40
0.9999999999999997
  0
SPLINE
  5
24B
330
1B
100
AcDbEntity
 67
     1
  8
0
  6
Continuous
 62
     7
370
    25
100
AcDbSpline
210
0.0
220
0.0
230
1.0
 70
     8
 71
     3
 72
    17
 73
    13
 74
     0
 42
0.00000001
 43
0.00000001
 40
0.0
 40
0.0
 40
0.0
 40
0.0
 40
0.1067605844316202
 40
0.2135211688632414
 40
0.3202817532948622
 40
0.4270423377264829
 40
0.5338029221581035
 40
0.6405635065897246
 40
0.7473240910213449
 40
0.8540846754529661
 40
0.9608452598845874
 40
1.0
 40
1.0
 40
1.0
 40
1.0
 10
6.048735461968258
 20
-9.221874463278448
 30
0.0
 10
6.005139936709417
 20
-9.204917083956643
 30
0.0
 10
5.91794888619174
 20
-9.171002325313031
 30
0.0
 10
5.802933166813292
 20
-9.089017998732091
 30
0.0
 10
5.70522681110203
 20
-8.98793077214267
 30
0.0
 10
5.629365747176819
 20
-8.869257839664877
 30
0.0
 10
5.578022244853024
 20
-8.738171183856808
 30
0.0
 10
5.553360391779569
 20
-8.599630129432178
 30
0.0
 10
5.555807014873876
 20
-8.45866033092128
 30
0.0
 10
5.587160763196794
 20
-8.321951042564953
 30
0.0
 10
5.628189365383274
 20
-8.217826407507127
 30
0.0
 10
5.665880305210531
 20
-8.166314746662977
 30
0.0
 10
5.675994246006148
 20
-8.152492170456352
 30
0.0
  0
SPLINE
  5
257
330
1B
100
AcDbEntity
 67
     1
  8
0
  6
Continuous
 62
     7
370
    25
100
AcDbSpline
210
0.0
220
0.0
230
1.0
 70
    24
 71
     3
 72
     9
 73
     5
 74
     0
 42
0.00000001
 43
0.00000001
 40
0.0
 40
0.0
 40
0.0
 40
0.0
 40
0.3745468834641922
 40
1.0
 40
1.0
 40
1.0
 40
1.0
 10
-4.67079619805767
 20
-9.2534970871839
 30
0.0
 10
-4.67079619805767
 20
-9.253966848302001
 30
0.0
 10
-4.670796198057672
 20
-9.255221060094541
 30
0.0
 10
-4.670796198057669
 20
-9.234705797933586
 30
0.0
 10
-4.670796198057669
 20
-9.221874463278468
 30
0.0
  0
SPLINE
  5
258
330
1B
100
AcDbEntity
 67
     1
  8
0
  6
Continuous
 62
     7
370
    25
100
AcDbSpline
210
0.0
220
0.0
230
1.0
 70
     8
 71
     3
 72
     9
 73
     5
 74
     0
 42
0.00000001
 43
0.00000001
 40
0.0
 40
0.0
 40
0.0
 40
0.0
 40
0.5414454457093549
 40
1.0
 40
1.0
 40
1.0
 40
1.0
 10
5.339386843075941
 20
-8.543240200456333
 30
0.0
 10
5.343441997481053
 20
-8.469801324916412
 30
0.0
 10
5.350931495152971
 20
-8.334166468031233
 30
0.0
 10
5.404560394933692
 20
-8.209608701549033
 30
0.0
 10
5.429152171169739
 20
-8.152492170456352
 30
0.0
  0
LINE
  5
264
330
1B
100
AcDbEntity
 67
     1
  8
0
  6
Continuous
 62
     7
370
    25
100
AcDbLine
 10
-6.3316571254
 20
-9.2868402005
 30
0.0
 11
-6.3222628995
 21
-9.2868402005
 31
0.0
  0
LINE
  5
265
330
1B
100
AcDbEntity
 67
     1
  8
0
  6
Continuous
 62
     7
370
    25
100
AcDbLine
 10
-5.8548628995
 20
-8.2482402005
 30
0.0
 11
-5.8955628995
 21
-8.2482402005
 31
0.0
  0
LINE
  5
266
330
1B
100
AcDbEntity
 67
     1
  8
0
  6
Continuous
 62
     7
370
    25
100
AcDbLine
 10
-5.8955628995
 20
-8.8382402005
 30
0.0
 11
-5.8548628995
 21
-8.8382402005
 31
0.0
  0
LINE
  5
267
330
1B
100
AcDbEntity
 67
     1
  8
0
  6
Continuous
 62
     7
370
    25
100
AcDbLine
 10
-4.7184628995
 20
-9.2868402005
 30
0.0
 11
-4.7090686736
 21
-9.2868402005
 31
0.0
  0
LINE
  5
268
330
1B
100
AcDbEntity
 67
     1
  8
0
  6
Continuous
 62
     7
370
    25
100
AcDbLine
 10
-5.1451628995
 20
-8.2482402005
 30
0.0
 11
-5.1858628995
 21
-8.2482402005
 31
0.0
  0
LINE
  5
269
330
1B
100
AcDbEntity
 67
     1
  8
0
  6
Continuous
 62
     7
370
    25
100
AcDbLine
 10
-5.1858628995
 20
-8.8382402005
 30
0.0
 11
-5.1451628995
 21
-8.8382402005
 31
0.0
  0
LINE
  5
26A
330
1B
100
AcDbEntity
 67
     1
  8
0
  6
Continuous
 62
     7
370
    25
100
AcDbLine
 10
-6.2519623589
 20
-9.527492169
 30
0.0
 11
-5.9545628995
 21
-9.527492169
 31
0.0
  0
LINE
  5
26B
330
1B
100
AcDbEntity
 67
     1
  8
0
  6
Continuous
 62
     7
370
    25
100
AcDbLine
 10
-6.3222628995
 20
-9.3262402005
 30
0.0
 11
-6.3107828973
 21
-9.4730904579
 31
0.0
  0
LINE
  5
26C
330
1B
100
AcDbEntity
 67
     1
  8
0
  6
Continuous
 62
     7
370
    25
100
AcDbLine
 10
-5.0861628995
 20
-9.527492169
 30
0.0
 11
-4.7887634401
 21
-9.527492169
 31
0.0
  0
LINE
  5
26D
330
1B
100
AcDbEntity
 67
     1
  8
0
  6
Continuous
 62
     7
370
    25
100
AcDbLine
 10
-4.7299429017
 20
-9.4730904579
 30
0.0
 11
-4.7184628995
 21
-9.3262402005
 31
0.0
  0
LINE
  5
26E
330
1B
100
AcDbEntity
 67
     1
  8
0
  6
Continuous
 62
     7
370
    25
100
AcDbLine
 10
5.3037371005
 20
-8.1524921705
 30
0.0
 11
5.3037371005
 21
-8.3520290933
 31
0.0
  0
LINE
  5
26F
330
1B
100
AcDbEntity
 67
     1
  8
0
  6
Continuous
 62
     7
370
    25
100
AcDbLine
 10
-8.0801628995
 20
9.2825078295
 30
0.0
 11
-8.0801628995
 21
-1.6383951023
 31
0.0
  0
LINE
  5
270
330
1B
100
AcDbEntity
 67
     1
  8
0
  6
Continuous
 62
     7
370
    25
100
AcDbLine
 10
-8.0801628995
 20
-4.5477010144
 30
0.0
 11
-8.0801628995
 21
-8.1524921705
 31
0.0
  0
LINE
  5
271
330
1B
100
AcDbEntity
 67
     1
  8
0
  6
Continuous
 62
     7
370
    25
100
AcDbLine
 10
8.1590371005
 20
9.2825078295
 30
0.0
 11
-8.0801628995
 21
9.2825078295
 31
0.0
  0
LINE
  5
272
330
1B
100
AcDbEntity
 67
     1
  8
0
  6
Continuous
 62
     7
370
    25
100
AcDbLine
 10
8.1590371005
 20
-8.1524921705
 30
0.0
 11
-8.0801628995
 21
-8.1524921705
 31
0.0
  0
LINE
  5
273
330
1B
100
AcDbEntity
 67
     1
  8
0
  6
Continuous
 62
     7
370
    25
100
AcDbLine
 10
6.5992371005
 20
9.2825078295
 30
0.0
 11
6.5992371005
 21
-8.1524921705
 31
0.0
  0
LINE
  5
274
330
1B
100
AcDbEntity
 67
     1
  8
0
  6
Continuous
 62
     7
370
    25
100
AcDbLine
 10
8.1590371005
 20
9.2825078295
 30
0.0
 11
8.1590371005
 21
-8.1524921705
 31
0.0
  0
LINE
  5
275
330
1B
100
AcDbEntity
 67
     1
  8
0
  6
Continuous
 62
     7
370
    25
100
AcDbLine
 10
6.0394520635
 20
-9.250445826
 30
0.0
 11
6.1932189199
 21
-8.7772001035
 31
0.0
  0
LINE
  5
276
330
1B
100
AcDbEntity
 67
     1
  8
0
  6
Continuous
 62
     7
370
    25
100
AcDbLine
 10
-6.3222628995
 20
-8.1524921705
 30
0.0
 11
-6.3222628995
 21
-9.3262402005
 31
0.0
  0
LINE
  5
277
330
1B
100
AcDbEntity
 67
     1
  8
0
  6
Continuous
 62
     7
370
    25
100
AcDbLine
 10
-6.3316571254
 20
-8.5432402005
 30
0.0
 11
-6.3107828973
 21
-8.5432402005
 31
0.0
  0
LINE
  5
278
330
1B
100
AcDbEntity
 67
     1
  8
0
  6
Continuous
 62
     7
370
    25
100
AcDbLine
 10
-6.4262628995
 20
-8.2972402005
 30
0.0
 11
-6.4262628995
 21
-8.7892402005
 31
0.0
  0
LINE
  5
279
330
1B
100
AcDbEntity
 67
     1
  8
0
  6
Continuous
 62
     7
370
    25
100
AcDbLine
 10
-4.7184628995
 20
-9.3262402005
 30
0.0
 11
-4.7184628995
 21
-8.1524921705
 31
0.0
  0
LINE
  5
27A
330
1B
100
AcDbEntity
 67
     1
  8
0
  6
Continuous
 62
     7
370
    25
100
AcDbLine
 10
-4.7090686736
 20
-8.5432402005
 30
0.0
 11
-4.7299429017
 21
-8.5432402005
 31
0.0
  0
LINE
  5
27B
330
1B
100
AcDbEntity
 67
     1
  8
0
  6
Continuous
 62
     7
370
    25
100
AcDbLine
 10
-4.7090686736
 20
-9.2868402005
 30
0.0
 11
-4.7090686736
 21
-8.1524921705
 31
0.0
  0
LINE
  5
27C
330
1B
100
AcDbEntity
 67
     1
  8
0
  6
Continuous
 62
     7
370
    25
100
AcDbLine
 10
-4.6144628995
 20
-8.7892402005
 30
0.0
 11
-4.6144628995
 21
-8.2972402005
 31
0.0
  0
LINE
  5
27D
330
1B
100
AcDbEntity
 67
     1
  8
0
  6
Continuous
 62
     7
370
    25
100
AcDbLine
 10
5.4862371005
 20
-8.5432402005
 30
0.0
 11
5.3393868431
 21
-8.5432402005
 31
0.0
  0
LINE
  5
27E
330
1B
100
AcDbEntity
 67
     1
  8
0
  6
Continuous
 62
     7
370
    25
100
AcDbLine
 10
7.0522371005
 20
-8.5432402005
 30
0.0
 11
7.1990873579
 21
-8.5432402005
 31
0.0
  0
LINE
  5
27F
330
1B
100
AcDbEntity
 67
     1
  8
0
  6
Continuous
 62
     7
370
    25
100
AcDbLine
 10
5.9650865155
 20
-9.4793194488
 30
0.0
 11
5.9818975687
 21
-9.427580347
 31
0.0
  0
LINE
  5
280
330
1B
100
AcDbEntity
 67
     1
  8
0
  6
Continuous
 62
     7
370
    25
100
AcDbLine
 10
-6.2519623589
 20
-8.5432402005
 30
0.0
 11
-5.9545628995
 21
-8.5432402005
 31
0.0
  0
LINE
  5
281
330
1B
100
AcDbEntity
 67
     1
  8
0
  6
Continuous
 62
     7
370
    25
100
AcDbLine
 10
-6.3107828973
 20
-8.1524921705
 30
0.0
 11
-6.3107828973
 21
-9.4730904579
 31
0.0
  0
LINE
  5
282
330
1B
100
AcDbEntity
 67
     1
  8
0
  6
Continuous
 62
     7
370
    25
100
AcDbLine
 10
-5.8955628995
 20
-8.1524921705
 30
0.0
 11
-5.8955628995
 21
-9.468492169
 31
0.0
  0
LINE
  5
283
330
1B
100
AcDbEntity
 67
     1
  8
0
  6
Continuous
 62
     7
370
    25
100
AcDbLine
 10
-4.7887634401
 20
-9.527492169
 30
0.0
 11
-4.7887634401
 21
-8.1524921705
 31
0.0
  0
LINE
  5
284
330
1B
100
AcDbEntity
 67
     1
  8
0
  6
Continuous
 62
     7
370
    25
100
AcDbLine
 10
-5.0861628995
 20
-9.527492169
 30
0.0
 11
-5.0861628995
 21
-8.1524921705
 31
0.0
  0
LINE
  5
285
330
1B
100
AcDbEntity
 67
     1
  8
0
  6
Continuous
 62
     7
370
    25
100
AcDbLine
 10
-4.7887634401
 20
-8.5432402005
 30
0.0
 11
-5.0861628995
 21
-8.5432402005
 31
0.0
  0
LINE
  5
286
330
1B
100
AcDbEntity
 67
     1
  8
0
  6
Continuous
 62
     7
370
    25
100
AcDbLine
 10
-5.1451628995
 20
-9.4232071143
 30
0.0
 11
-5.1451628995
 21
-8.1524921705
 31
0.0
  0
LINE
  5
287
330
1B
100
AcDbEntity
 67
     1
  8
0
  6
Continuous
 62
     7
370
    25
100
AcDbLine
 10
-4.7299429017
 20
-9.427580347
 30
0.0
 11
-4.7299429017
 21
-8.1524921705
 31
0.0
  0
LINE
  5
288
330
1B
100
AcDbEntity
 67
     1
  8
0
  6
Continuous
 62
     7
370
    25
100
AcDbLine
 10
-5.1858628995
 20
-8.9704921764
 30
0.0
 11
-5.1858628995
 21
-8.1524921705
 31
0.0
  0
LINE
  5
289
330
1B
100
AcDbEntity
 67
     1
  8
0
  6
Continuous
 62
     7
370
    25
100
AcDbLine
 10
-5.8548628995
 20
-8.9704921705
 30
0.0
 11
-5.1858628995
 21
-8.9704921705
 31
0.0
  0
LINE
  5
28A
330
1B
100
AcDbEntity
 67
     1
  8
0
  6
Continuous
 62
     7
370
    25
100
AcDbLine
 10
-5.8548628995
 20
-8.9704921764
 30
0.0
 11
-5.8548628995
 21
-8.1524921705
 31
0.0
  0
LINE
  5
28B
330
1B
100
AcDbEntity
 67
     1
  8
0
  6
Continuous
 62
     7
370
    25
100
AcDbLine
 10
0.0021043919
 20
5.5523568058
 30
0.0
 11
0.0368226292
 21
5.4683251023
 31
0.0
  0
LINE
  5
28C
330
1B
100
AcDbEntity
 67
     1
  8
0
  6
Continuous
 62
     7
370
    25
100
AcDbLine
 10
0.0368226292
 20
5.4683251023
 30
0.0
 11
0.1269553378
 21
5.456376126
 31
0.0
  0
LINE
  5
28D
330
1B
100
AcDbEntity
 67
     1
  8
0
  6
Continuous
 62
     7
370
    25
100
AcDbLine
 10
0.1269553378
 20
5.456376126
 30
0.0
 11
0.1823698091
 21
5.5284588533
 31
0.0
  0
LINE
  5
28E
330
1B
100
AcDbEntity
 67
     1
  8
0
  6
Continuous
 62
     7
370
    25
100
AcDbLine
 10
0.1823698091
 20
5.5284588533
 30
0.0
 11
0.1476515718
 21
5.6124905568
 31
0.0
  0
LINE
  5
28F
330
1B
100
AcDbEntity
 67
     1
  8
0
  6
Continuous
 62
     7
370
    25
100
AcDbLine
 10
0.1476515718
 20
5.6124905568
 30
0.0
 11
0.0575188632
 21
5.6244395331
 31
0.0
  0
LINE
  5
290
330
1B
100
AcDbEntity
 67
     1
  8
0
  6
Continuous
 62
     7
370
    25
100
AcDbLine
 10
0.0575188632
 20
5.6244395331
 30
0.0
 11
0.0021043919
 21
5.5523568058
 31
0.0
  0
LINE
  5
291
330
1B
100
AcDbEntity
 67
     1
  8
0
  6
Continuous
 62
     7
370
    25
100
AcDbLine
 10
-8.8833856845
 20
-2.4869326778
 30
0.0
 11
-7.4309207345
 21
-3.8618310628
 31
0.0
  0
LINE
  5
292
330
1B
100
AcDbEntity
 67
     1
  8
0
  6
Continuous
 62
     7
370
    25
100
AcDbLine
 10
-0.6339953745
 20
6.227857022
 30
0.0
 11
-9.8286283242
 21
-3.4855023309
 31
0.0
  0
LINE
  5
293
330
1B
100
AcDbEntity
 67
     1
  8
0
  6
Continuous
 62
     7
370
    25
100
AcDbLine
 10
0.8184695755
 20
4.852958637
 30
0.0
 11
-8.3761633742
 21
-4.8604007159
 31
0.0
  0
LINE
  5
294
330
1B
100
AcDbEntity
 67
     1
  8
0
  6
Continuous
 62
     7
370
    25
100
AcDbLine
 10
-9.8286283242
 20
-3.4855023309
 30
0.0
 11
-8.3761633742
 21
-4.8604007159
 31
0.0
  0
LINE
  5
295
330
1B
100
AcDbEntity
 67
     1
  8
0
  6
Continuous
 62
     7
370
    25
100
AcDbLine
 10
-6.5203628995
 20
9.2825078295
 30
0.0
 11
-6.5203628995
 21
0.0094029122
 31
0.0
  0
LINE
  5
296
330
1B
100
AcDbEntity
 67
     1
  8
0
  6
Continuous
 62
     7
370
    25
100
AcDbLine
 10
-6.5203628995
 20
-2.8999029998
 30
0.0
 11
-6.5203628995
 21
-8.1524921705
 31
0.0
  0
LINE
  5
297
330
1B
100
AcDbEntity
 67
     1
  8
0
  6
Continuous
 62
     7
370
    25
100
AcDbLine
 10
6.3961988317
 20
-8.1524921705
 30
0.0
 11
6.3452552811
 21
-8.3092802974
 31
0.0
  0
LINE
  5
298
330
1B
100
AcDbEntity
 67
     1
  8
0
  6
Continuous
 62
     7
370
    25
100
AcDbLine
 10
-6.3699296009
 20
-8.1524921705
 30
0.0
 11
-6.3699296009
 21
-9.2567984919
 31
0.0
  0
LINE
  5
299
330
1B
100
AcDbEntity
 67
     1
  8
0
  6
Continuous
 62
     7
370
    25
100
AcDbLine
 10
-6.3316571254
 20
-8.1524921705
 30
0.0
 11
-6.3316571254
 21
-9.2868402005
 31
0.0
  0
LINE
  5
29A
330
1B
100
AcDbEntity
 67
     1
  8
0
  6
Continuous
 62
     7
370
    25
100
AcDbLine
 10
-5.8955628995
 20
-8.5432402005
 30
0.0
 11
-5.8548628995
 21
-8.5432402005
 31
0.0
  0
LINE
  5
29B
330
1B
100
AcDbEntity
 67
     1
  8
0
  6
Continuous
 62
     7
370
    25
100
AcDbLine
 10
-4.6707961981
 20
-9.2218744633
 30
0.0
 11
-4.6707961981
 21
-8.1524921705
 31
0.0
  0
LINE
  5
29C
330
1B
100
AcDbEntity
 67
     1
  8
0
  6
Continuous
 62
     7
370
    25
100
AcDbLine
 10
-5.1451628995
 20
-8.5432402005
 30
0.0
 11
-5.1858628995
 21
-8.5432402005
 31
0.0
  0
LINE
  5
29D
330
1B
100
AcDbEntity
 67
     1
  8
0
  6
Continuous
 62
     7
370
    25
100
AcDbLine
 10
-5.9545628995
 20
-8.1524921705
 30
0.0
 11
-5.9545628995
 21
-9.527492169
 31
0.0
  0
LINE
  5
29E
330
1B
100
AcDbEntity
 67
     1
  8
0
  6
Continuous
 62
     7
370
    25
100
AcDbLine
 10
-6.2519623589
 20
-8.1524921705
 30
0.0
 11
-6.2519623589
 21
-9.527492169
 31
0.0
  0
ARC
  5
29F
330
1B
100
AcDbEntity
 67
     1
  8
0
  6
Continuous
 62
     7
370
    25
100
AcDbCircle
 10
-6.3316571254
 20
-9.2474402005
 30
0.0
 40
0.0393999999999881
100
AcDbArc
 50
193.7402199829
 51
270.0
  0
ARC
  5
2A0
330
1B
100
AcDbEntity
 67
     1
  8
0
  6
Continuous
 62
     7
370
    25
100
AcDbCircle
 10
-4.4577628995
 20
-8.7892402005
 30
0.0
 40
1.968499999999828
100
AcDbArc
 50
180.0
 51
193.7402199829
  0
ARC
  5
2A1
330
1B
100
AcDbEntity
 67
     1
  8
0
  6
Continuous
 62
     7
370
    25
100
AcDbCircle
 10
-4.4577628995
 20
-8.2972402005
 30
0.0
 40
1.968500000001744
100
AcDbArc
 50
175.7831124183
 51
180.0
  0
ARC
  5
2A2
330
1B
100
AcDbEntity
 67
     1
  8
0
  6
Continuous
 62
     7
370
    25
100
AcDbCircle
 10
-6.5829628995
 20
-8.2972402005
 30
0.0
 40
1.968500000000344
100
AcDbArc
 50
0.0
 51
4.2168875817
  0
ARC
  5
2A3
330
1B
100
AcDbEntity
 67
     1
  8
0
  6
Continuous
 62
     7
370
    25
100
AcDbCircle
 10
-4.7090686736
 20
-9.2474402005
 30
0.0
 40
0.0393999999999872
100
AcDbArc
 50
270.0
 51
346.2597800171
  0
ARC
  5
2A4
330
1B
100
AcDbEntity
 67
     1
  8
0
  6
Continuous
 62
     7
370
    25
100
AcDbCircle
 10
-6.5829628995
 20
-8.7892402005
 30
0.0
 40
1.968500000000038
100
AcDbArc
 50
346.2597800171
 51
0.0
  0
ARC
  5
2A5
330
1B
100
AcDbEntity
 67
     1
  8
0
  6
Continuous
 62
     7
370
    25
100
AcDbCircle
 10
-6.2519623589
 20
-9.468492169
 30
0.0
 40
0.0590000000000179
100
AcDbArc
 50
184.47
 51
270.0
  0
ARC
  5
2A6
330
1B
100
AcDbEntity
 67
     1
  8
0
  6
Continuous
 62
     7
370
    25
100
AcDbCircle
 10
-5.9545628995
 20
-9.468492169
 30
0.0
 40
0.0590000000000046
100
AcDbArc
 50
270.0
 51
0.0
  0
ARC
  5
2A7
330
1B
100
AcDbEntity
 67
     1
  8
0
  6
Continuous
 62
     7
370
    25
100
AcDbCircle
 10
-5.0861628995
 20
-9.468492169
 30
0.0
 40
0.0590000000000099
100
AcDbArc
 50
180.0
 51
270.0
  0
ARC
  5
2A8
330
1B
100
AcDbEntity
 67
     1
  8
0
  6
Continuous
 62
     7
370
    25
100
AcDbCircle
 10
-4.7887634401
 20
-9.468492169
 30
0.0
 40
0.0590000000000159
100
AcDbArc
 50
270.0
 51
355.53
  0
ARC
  5
2A9
330
1B
100
AcDbEntity
 67
     1
  8
0
  6
Continuous
 62
     7
370
    25
100
AcDbCircle
 10
6.2692371005
 20
-8.5432402005
 30
0.0
 40
0.2460000000000027
100
AcDbArc
 50
72.0
 51
0.0
  0
ARC
  5
2AA
330
1B
100
AcDbEntity
 67
     1
  8
0
  6
Continuous
 62
     7
370
    25
100
AcDbCircle
 10
6.2692371005
 20
-8.5432402005
 30
0.0
 40
0.7435999999999977
100
AcDbArc
 50
148.2993379594
 51
31.7006620406
  0
ARC
  5
2AB
330
1B
100
AcDbEntity
 67
     1
  8
0
  6
Continuous
 62
     7
370
    25
100
AcDbCircle
 10
6.2692371005
 20
-8.5432402005
 30
0.0
 40
0.7829999999999802
100
AcDbArc
 50
150.0635172784
 51
29.9364827216
  0
ARC
  5
2AC
330
1B
100
AcDbEntity
 67
     1
  8
0
  6
Continuous
 62
     7
370
    25
100
AcDbCircle
 10
-4.7084207976
 20
-9.2113942494
 30
0.0
 40
0.0390569503801646
100
AcDbArc
 50
269.0495350883
 51
344.4349888031
  0
ARC
  5
2AD
330
1B
100
AcDbEntity
 67
     1
  8
0
  6
Continuous
 62
     7
370
    25
100
AcDbCircle
 10
-6.3997864871
 20
-8.7769329343
 30
0.0
 40
1.785323607624583
100
AcDbArc
 50
345.5685340217
 51
359.9914258313
  0
ARC
  5
2AE
330
1B
100
AcDbEntity
 67
     1
  8
0
  6
Continuous
 62
     7
370
    25
100
AcDbCircle
 10
6.2692371005
 20
-8.5432402005
 30
0.0
 40
0.9298502574218239
100
AcDbArc
 50
180.0
 51
24.8489093098
  0
ARC
  5
2AF
330
1B
100
AcDbEntity
 67
     1
  8
0
  6
Continuous
 62
     7
370
    25
100
AcDbCircle
 10
6.2692371005
 20
-8.5432402005
 30
0.0
 40
0.9842519685039239
100
AcDbArc
 50
156.6092326431
 51
23.3907673569
  0
ARC
  5
2B0
330
1B
100
AcDbEntity
 67
     1
  8
0
  6
Continuous
 62
     7
370
    25
100
AcDbCircle
 10
-5.0875713992
 20
-9.4217261301
 30
0.0
 40
0.0576105391820175
100
AcDbArc
 50
181.4730549926
 51
271.4009438083
  0
ARC
  5
2B1
330
1B
100
AcDbEntity
 67
     1
  8
0
  6
Continuous
 62
     7
370
    25
100
AcDbCircle
 10
-4.7875014561
 20
-9.4214490082
 30
0.0
 40
0.0578841990261317
100
AcDbArc
 50
268.7507456335
 51
353.9195824424
  0
ARC
  5
2B2
330
1B
100
AcDbEntity
 67
     1
  8
0
  6
Continuous
 62
     7
370
    25
100
AcDbCircle
 10
6.2692371005
 20
-8.5432402005
 30
0.0
 40
0.2439999999999998
100
AcDbArc
 50
180.0
 51
0.0
  0
ARC
  5
2B3
330
1B
100
AcDbEntity
 67
     1
  8
0
  6
Continuous
 62
     7
370
    25
100
AcDbCircle
 10
6.2692371005
 20
-8.5432402005
 30
0.0
 40
0.7135582914312416
100
AcDbArc
 50
252.0
 51
33.2028550273
  0
ARC
  5
2B4
330
1B
100
AcDbEntity
 67
     1
  8
0
  6
Continuous
 62
     7
370
    25
100
AcDbCircle
 10
-4.6451255038
 20
-8.3092927461
 30
0.0
 40
1.78113739578624
100
AcDbArc
 50
174.9494877821
 51
179.9995995522
  0
VIEWPORT
  5
3B3
330
1B
100
AcDbEntity
 67
     1
  8
0
100
AcDbViewport
 10
0.0
 20
0.0
 30
0.0
 40
8.4
 41
6.4
 68
     1
 69
     1
 12
-1.0388985129
 22
-0.1224921697
 13
0.0
 23
0.0
 14
0.5
 24
0.5
 15
0.5
 25
0.5
 16
0.0
 26
0.0
 36
1.0
 17
0.0
 27
0.0
 37
0.0
 42
50.0
 43
0.0
 44
0.0
 45
19.1861999985
 50
0.0
 51
0.0
 72
   100
 90
   557152
  1

281
     0
 71
     1
 74
     0
110
0.0
120
0.0
130
0.0
111
1.0
121
0.0
131
0.0
112
0.0
122
1.0
132
0.0
 79
     0
146
0.0
170
     0
 61
     5
348
2F
292
     1
282
     1
141
0.0
142
0.0
 63
   256
361
3B4
  0
ENDSEC
  0
SECTION
  2
OBJECTS
  0
DICTIONARY
  5
C
330
0
100
AcDbDictionary
281
     1
  3
ACAD_DETAILVIEWSTYLE
350
3BE
  3
ACAD_GROUP
350
D
  3
ACAD_LAYOUT
350
1A
  3
ACAD_MATERIAL
350
43
  3
ACAD_MLEADERSTYLE
350
5B
  3
ACAD_MLINESTYLE
350
17
  3
ACAD_PLOTSETTINGS
350
19
  3
ACAD_PLOTSTYLENAME
350
E
  3
ACAD_SCALELIST
350
47
  3
ACAD_SECTIONVIEWSTYLE
350
3BF
  3
ACAD_TABLESTYLE
350
59
  3
ACAD_VISUALSTYLE
350
2A
  3
ACDB_RECOMPOSE_DATA
350
3BB
  3
AcDbVariableDictionary
350
3B7
  0
SUN
  5
5D
330
29
100
AcDbSun
 90
        1
290
     0
 63
     7
421
 16777215
 40
1.0
291
     1
 91
  2455826
 92
 54000000
292
     0
 70
     2
 71
   256
280
     1
  0
SUN
  5
3B6
330
3B5
100
AcDbSun
 90
        1
290
     0
 63
     7
421
 16777215
 40
1.0
291
     1
 91
  2455826
 92
 54000000
292
     0
 70
     2
 71
   256
280
     1
  0
SUN
  5
3B4
330
3B3
100
AcDbSun
 90
        1
290
     0
 63
     7
421
 16777215
 40
1.0
291
     1
 91
  2455826
 92
 54000000
292
     0
 70
     2
 71
   256
280
     1
  0
DICTIONARY
  5
3BE
102
{ACAD_REACTORS
330
C
102
}
330
C
100
AcDbDictionary
281
     1
  0
DICTIONARY
  5
D
102
{ACAD_REACTORS
330
C
102
}
330
C
100
AcDbDictionary
281
     1
  0
DICTIONARY
  5
1A
102
{ACAD_REACTORS
330
C
102
}
330
C
100
AcDbDictionary
281
     1
  3
_Right
350
1E
  3
_Top
350
26
  3
Model
350
22
  0
DICTIONARY
  5
43
102
{ACAD_REACTORS
330
C
102
}
330
C
100
AcDbDictionary
281
     1
  3
ByBlock
350
45
  3
ByLayer
350
44
  3
Global
350
46
  0
DICTIONARY
  5
5B
102
{ACAD_REACTORS
330
C
102
}
330
C
100
AcDbDictionary
281
     1
  3
Standard
350
5C
  0
DICTIONARY
  5
17
102
{ACAD_REACTORS
330
C
102
}
330
C
100
AcDbDictionary
281
     1
  3
Standard
350
18
  0
DICTIONARY
  5
19
102
{ACAD_REACTORS
330
C
102
}
330
C
100
AcDbDictionary
281
     1
  0
ACDBDICTIONARYWDFLT
  5
E
102
{ACAD_REACTORS
330
C
102
}
330
C
100
AcDbDictionary
281
     1
  3
Normal
350
F
100
AcDbDictionaryWithDefault
340
F
  0
DICTIONARY
  5
47
102
{ACAD_REACTORS
330
C
102
}
330
C
100
AcDbDictionary
281
     1
  3
A0
350
48
  3
A1
350
49
  3
A2
350
4A
  3
A3
350
4B
  3
A4
350
4C
  3
A5
350
4D
  3
A6
350
4E
  3
A7
350
4F
  3
A8
350
50
  3
A9
350
51
  3
B1
350
52
  3
B2
350
53
  3
B3
350
54
  3
B4
350
55
  3
B5
350
56
  3
B6
350
57
  3
B7
350
58
  0
DICTIONARY
  5
3BF
102
{ACAD_REACTORS
330
C
102
}
330
C
100
AcDbDictionary
281
     1
  0
DICTIONARY
  5
59
102
{ACAD_REACTORS
330
C
102
}
330
C
100
AcDbDictionary
281
     1
  3
Standard
350
5A
  0
DICTIONARY
  5
2A
102
{ACAD_REACTORS
330
C
102
}
330
C
100
AcDbDictionary
281
     1
  3
2dWireframe
350
2F
  3
Basic
350
32
  3
Brighten
350
36
  3
ColorChange
350
3A
  3
Conceptual
350
34
  3
Dim
350
35
  3
EdgeColorOff
350
3D
  3
Facepattern
350
39
  3
Flat
350
2B
  3
FlatWithEdges
350
2C
  3
Gouraud
350
2D
  3
GouraudWithEdges
350
2E
  3
Hidden
350
31
  3
JitterOff
350
3B
  3
Linepattern
350
38
  3
OverhangOff
350
3C
  3
Realistic
350
33
  3
Shaded
350
42
  3
Shaded with edges
350
41
  3
Shades of Gray
350
3E
  3
Sketchy
350
3F
  3
Thicken
350
37
  3
Wireframe
350
30
  3
X-Ray
350
40
  0
XRECORD
  5
3BB
102
{ACAD_REACTORS
330
C
102
}
330
C
100
AcDbXrecord
280
     1
 90
        1
330
5A
  0
DICTIONARY
  5
3B7
102
{ACAD_REACTORS
330
C
102
}
330
C
100
AcDbDictionary
281
     1
  3
CANNOSCALE
350
3B8
  3
CMLEADERSTYLE
350
3BD
  3
CTABLESTYLE
350
3BC
  0
LAYOUT
  5
1E
102
{ACAD_REACTORS
330
1A
102
}
330
1A
100
AcDbPlotSettings
  1

  2
none_device
  4
Letter_(8.50_x_11.00_Inches)
  6

 40
6.35
 41
6.35
 42
6.35001
 43
6.35001
 44
215.9
 45
279.4
 46
0.0
 47
0.0
 48
0.0
 49
0.0
140
0.0
141
0.0
142
1.0
143
2.3512501155
 70
   688
 72
     0
 73
     1
 74
     1
  7

 75
     0
 76
     0
 77
     2
 78
   300
147
0.4253056676
148
249.6471594346
149
241.9983010916
100
AcDbLayout
  1
_Right
 70
     1
 71
     1
 10
-10.4164417788
 20
-10.1153046978
 11
15.447309492
 21
9.8703212841
 12
0.0
 22
0.0
 32
0.0
 14
-9.8286283242
 24
-9.527492169
 34
0.0
 15
8.1590371005
 25
9.2825078295
 35
0.0
146
0.0
 13
0.0
 23
0.0
 33
0.0
 16
1.0
 26
0.0
 36
0.0
 17
0.0
 27
1.0
 37
0.0
 76
     0
330
1B
331
3B3
  0
LAYOUT
  5
26
102
{ACAD_REACTORS
330
1A
102
}
330
1A
100
AcDbPlotSettings
  1

  2
none_device
  4
Letter_(8.50_x_11.00_Inches)
  6

 40
6.35
 41
6.35
 42
6.35001
 43
6.35001
 44
215.9
 45
279.4
 46
0.0
 47
0.0
 48
0.0
 49
0.0
140
0.0
141
0.0
142
1.0
143
2.3512501155
 70
   688
 72
     0
 73
     1
 74
     1
  7

 75
     0
 76
     0
 77
     2
 78
   300
147
0.4253056676
148
249.6471594346
149
241.9983010916
100
AcDbLayout
  1
_Top
 70
     1
 71
     2
 10
0.0
 20
0.0
 11
0.0
 21
0.0
 12
0.0
 22
0.0
 32
0.0
 14
0.0
 24
0.0
 34
0.0
 15
0.0
 25
0.0
 35
0.0
146
0.0
 13
0.0
 23
0.0
 33
0.0
 16
1.0
 26
0.0
 36
0.0
 17
0.0
 27
1.0
 37
0.0
 76
     0
330
23
331
3B5
  0
LAYOUT
  5
22
102
{ACAD_REACTORS
330
1A
102
}
330
1A
100
AcDbPlotSettings
  1

  2
none_device
  4
ANSI_A_(11.00_x_8.50_Inches)
  6

 40
6.35
 41
19.05
 42
6.35000508
 43
19.05000254
 44
279.4
 45
215.9
 46
145.1551652997
 47
90.2918965954
 48
0.0
 49
0.0
140
0.0
141
0.0
142
0.4473684211
143
1.0
 70
  1696
 72
     0
 73
     0
 74
     0
  7

 75
     0
 76
     0
 77
     2
 78
   300
147
0.5913241897
148
-39.4088153714
149
0.0
100
AcDbLayout
  1
Model
 70
     1
 71
     0
 10
0.0
 20
0.0
 11
12.0
 21
9.0
 12
0.0
 22
0.0
 32
0.0
 14
-10.0201386704
 24
-9.527492169
 34
0.0
 15
7.9423416446
 25
9.2825078295
 35
0.0
146
0.0
 13
0.0
 23
0.0
 33
0.0
 16
1.0
 26
0.0
 36
0.0
 17
0.0
 27
1.0
 37
0.0
 76
     0
330
1F
331
29
  0
MATERIAL
  5
45
102
{ACAD_REACTORS
330
43
102
}
330
43
100
AcDbMaterial
  1
ByBlock
 72
     1
 94
      127
  0
MATERIAL
  5
44
102
{ACAD_REACTORS
330
43
102
}
330
43
100
AcDbMaterial
  1
ByLayer
 72
     1
 94
      127
  0
MATERIAL
  5
46
102
{ACAD_REACTORS
330
43
102
}
330
43
100
AcDbMaterial
  1
Global
 72
     1
 94
      127
  0
MLEADERSTYLE
  5
5C
102
{ACAD_REACTORS
330
5B
102
}
330
5B
100
AcDbMLeaderStyle
179
     2
170
     2
171
     1
172
     0
 90
        2
 40
0.0
 41
0.0
173
     1
 91
-1056964608
340
14
 92
       -2
290
     1
 42
0.09
291
     1
 43
0.36
  3
Standard
341
0
 44
0.18
300

342
11
174
     1
178
     6
175
     1
176
     0
 93
-1056964608
 45
0.18
292
     0
297
     0
 46
0.18
343
0
 94
-1056964608
 47
1.0
 49
1.0
140
1.0
293
     1
141
0.0
294
     1
177
     0
142
1.0
295
     0
296
     0
143
0.125
271
     0
272
     9
273
     9
  0
MLINESTYLE
  5
18
102
{ACAD_REACTORS
330
17
102
}
330
17
100
AcDbMlineStyle
  2
Standard
 70
     0
  3

 62
   256
 51
90.0
 52
90.0
 71
     2
 49
0.5
 62
   256
  6
BYLAYER
 49
-0.5
 62
   256
  6
BYLAYER
  0
ACDBPLACEHOLDER
  5
F
102
{ACAD_REACTORS
330
E
102
}
330
E
  0
SCALE
  5
48
102
{ACAD_REACTORS
330
47
102
}
330
47
100
AcDbScale
 70
     0
300
1:1
140
1.0
141
1.0
290
     1
  0
SCALE
  5
49
102
{ACAD_REACTORS
330
47
102
}
330
47
100
AcDbScale
 70
     0
300
1/128" = 1'-0"
140
0.0078125
141
12.0
290
     0
  0
SCALE
  5
4A
102
{ACAD_REACTORS
330
47
102
}
330
47
100
AcDbScale
 70
     0
300
1/64" = 1'-0"
140
0.015625
141
12.0
290
     0
  0
SCALE
  5
4B
102
{ACAD_REACTORS
330
47
102
}
330
47
100
AcDbScale
 70
     0
300
1/32" = 1'-0"
140
0.03125
141
12.0
290
     0
  0
SCALE
  5
4C
102
{ACAD_REACTORS
330
47
102
}
330
47
100
AcDbScale
 70
     0
300
1/16" = 1'-0"
140
0.0625
141
12.0
290
     0
  0
SCALE
  5
4D
102
{ACAD_REACTORS
330
47
102
}
330
47
100
AcDbScale
 70
     0
300
3/32" = 1'-0"
140
0.09375
141
12.0
290
     0
  0
SCALE
  5
4E
102
{ACAD_REACTORS
330
47
102
}
330
47
100
AcDbScale
 70
     0
300
1/8" = 1'-0"
140
0.125
141
12.0
290
     0
  0
SCALE
  5
4F
102
{ACAD_REACTORS
330
47
102
}
330
47
100
AcDbScale
 70
     0
300
3/16" = 1'-0"
140
0.1875
141
12.0
290
     0
  0
SCALE
  5
50
102
{ACAD_REACTORS
330
47
102
}
330
47
100
AcDbScale
 70
     0
300
1/4" = 1'-0"
140
0.25
141
12.0
290
     0
  0
SCALE
  5
51
102
{ACAD_REACTORS
330
47
102
}
330
47
100
AcDbScale
 70
     0
300
3/8" = 1'-0"
140
0.375
141
12.0
290
     0
  0
SCALE
  5
52
102
{ACAD_REACTORS
330
47
102
}
330
47
100
AcDbScale
 70
     0
300
1/2" = 1'-0"
140
0.5
141
12.0
290
     0
  0
SCALE
  5
53
102
{ACAD_REACTORS
330
47
102
}
330
47
100
AcDbScale
 70
     0
300
3/4" = 1'-0"
140
0.75
141
12.0
290
     0
  0
SCALE
  5
54
102
{ACAD_REACTORS
330
47
102
}
330
47
100
AcDbScale
 70
     0
300
1" = 1'-0"
140
1.0
141
12.0
290
     0
  0
SCALE
  5
55
102
{ACAD_REACTORS
330
47
102
}
330
47
100
AcDbScale
 70
     0
300
1-1/2" = 1'-0"
140
1.5
141
12.0
290
     0
  0
SCALE
  5
56
102
{ACAD_REACTORS
330
47
102
}
330
47
100
AcDbScale
 70
     0
300
3" = 1'-0"
140
3.0
141
12.0
290
     0
  0
SCALE
  5
57
102
{ACAD_REACTORS
330
47
102
}
330
47
100
AcDbScale
 70
     0
300
6" = 1'-0"
140
6.0
141
12.0
290
     0
  0
SCALE
  5
58
102
{ACAD_REACTORS
330
47
102
}
330
47
100
AcDbScale
 70
     0
300
1'-0" = 1'-0"
140
12.0
141
12.0
290
     0
  0
TABLESTYLE
  5
5A
102
{ACAD_REACTORS
330
59
102
}
102
{ACAD_XDICTIONARY
360
3B9
102
}
330
59
100
AcDbTableStyle
  3
Standard
 70
     0
 71
     0
 40
0.06
 41
0.06
280
     0
281
     0
  7
Standard
140
0.18
170
     2
 62
     0
 63
   257
283
     0
 90
        4
 91
        0
  1

274
    -2
284
     1
 64
     0
275
    -2
285
     1
 65
     0
276
    -2
286
     1
 66
     0
277
    -2
287
     1
 67
     0
278
    -2
288
     1
 68
     0
279
    -2
289
     1
 69
     0
  7
Standard
140
0.25
170
     5
 62
     0
 63
   257
283
     0
 90
        4
 91
        0
  1

274
    -2
284
     1
 64
     0
275
    -2
285
     1
 65
     0
276
    -2
286
     1
 66
     0
277
    -2
287
     1
 67
     0
278
    -2
288
     1
 68
     0
279
    -2
289
     1
 69
     0
  7
Standard
140
0.18
170
     5
 62
     0
 63
   257
283
     0
 90
        4
 91
        0
  1

274
    -2
284
     1
 64
     0
275
    -2
285
     1
 65
     0
276
    -2
286
     1
 66
     0
277
    -2
287
     1
 67
     0
278
    -2
288
     1
 68
     0
279
    -2
289
     1
 69
     0
  0
VISUALSTYLE
  5
2F
102
{ACAD_REACTORS
330
2A
102
}
330
2A
100
AcDbVisualStyle
  2
2dWireframe
 70
     4
177
     2
291
     0
 71
     0
176
     1
 72
     2
176
     1
 73
     0
176
     1
 90
        0
176
     1
 40
0.6
176
     1
 41
30.0
176
     1
 62
     5
 63
     7
421
 16777215
176
     1
 74
     1
176
     1
 91
        4
176
     1
 64
     7
176
     1
 65
   257
176
     1
 75
     1
176
     1
175
     1
176
     1
 42
1.0
176
     1
 92
        0
176
     1
 66
   257
176
     1
 43
1.0
176
     1
 76
     1
176
     1
 77
     6
176
     1
 78
     2
176
     1
 67
     7
176
     1
 79
     5
176
     1
170
     0
176
     1
171
     0
176
     1
290
     0
176
     1
 93
        1
176
     1
 44
0.0
176
     1
173
     0
176
     1
  0
VISUALSTYLE
  5
32
102
{ACAD_REACTORS
330
2A
102
}
330
2A
100
AcDbVisualStyle
  2
Basic
 70
     7
177
     2
291
     1
 71
     1
176
     1
 72
     0
176
     1
 73
     1
176
     1
 90
        0
176
     1
 40
0.6
176
     1
 41
30.0
176
     1
 62
     5
 63
     7
421
 16777215
176
     1
 74
     0
176
     1
 91
        4
176
     1
 64
     7
176
     1
 65
   257
176
     1
 75
     1
176
     1
175
     1
176
     1
 42
1.0
176
     1
 92
        8
176
     1
 66
     7
176
     1
 43
1.0
176
     1
 76
     1
176
     1
 77
     6
176
     1
 78
     2
176
     1
 67
     7
176
     1
 79
     5
176
     1
170
     0
176
     1
171
     0
176
     1
290
     0
176
     1
 93
        1
176
     1
 44
0.0
176
     1
173
     0
176
     1
  0
VISUALSTYLE
  5
36
102
{ACAD_REACTORS
330
2A
102
}
330
2A
100
AcDbVisualStyle
  2
Brighten
 70
    12
177
     2
291
     1
 71
     2
176
     1
 72
     2
176
     1
 73
     0
176
     1
 90
        0
176
     1
 40
0.6
176
     1
 41
30.0
176
     1
 62
     5
 63
     7
421
 16777215
176
     1
 74
     1
176
     1
 91
        4
176
     1
 64
     7
176
     1
 65
   257
176
     1
 75
     1
176
     1
175
     1
176
     1
 42
1.0
176
     1
 92
        8
176
     1
 66
     7
176
     1
 43
1.0
176
     1
 76
     1
176
     1
 77
     6
176
     1
 78
     2
176
     1
 67
     7
176
     1
 79
     5
176
     1
170
     0
176
     1
171
     0
176
     1
290
     0
176
     1
 93
        1
176
     1
 44
50.0
176
     1
173
     0
176
     1
  0
VISUALSTYLE
  5
3A
102
{ACAD_REACTORS
330
2A
102
}
330
2A
100
AcDbVisualStyle
  2
ColorChange
 70
    16
177
     2
291
     1
 71
     2
176
     1
 72
     2
176
     1
 73
     3
176
     1
 90
        0
176
     1
 40
0.6
176
     1
 41
30.0
176
     1
 62
     5
 63
     8
421
  8421504
176
     1
 74
     1
176
     1
 91
        4
176
     1
 64
     7
176
     1
 65
   257
176
     1
 75
     1
176
     1
175
     1
176
     1
 42
1.0
176
     1
 92
        8
176
     1
 66
     8
424
  8421504
176
     1
 43
1.0
176
     1
 76
     1
176
     1
 77
     6
176
     1
 78
     2
176
     1
 67
     7
176
     1
 79
     5
176
     1
170
     0
176
     1
171
     0
176
     1
290
     0
176
     1
 93
        1
176
     1
 44
0.0
176
     1
173
     0
176
     1
  0
VISUALSTYLE
  5
34
102
{ACAD_REACTORS
330
2A
102
}
330
2A
100
AcDbVisualStyle
  2
Conceptual
 70
     9
177
     2
291
     0
 71
     3
176
     1
 72
     2
176
     1
 73
     0
176
     1
 90
        0
176
     1
 40
0.6
176
     1
 41
30.0
176
     1
 62
     5
 63
     7
421
 16777215
176
     1
 74
     2
176
     1
 91
        2
176
     1
 64
     7
176
     1
 65
   257
176
     1
 75
     1
176
     1
175
     1
176
     1
 42
179.0
176
     1
 92
        8
176
     1
 66
     7
176
     1
 43
1.0
176
     1
 76
     1
176
     1
 77
     6
176
     1
 78
     2
176
     1
 67
     7
176
     1
 79
     3
176
     1
170
     0
176
     1
171
     0
176
     1
290
     0
176
     1
 93
        1
176
     1
 44
0.0
176
     1
173
     0
176
     1
  0
VISUALSTYLE
  5
35
102
{ACAD_REACTORS
330
2A
102
}
330
2A
100
AcDbVisualStyle
  2
Dim
 70
    11
177
     2
291
     1
 71
     2
176
     1
 72
     2
176
     1
 73
     0
176
     1
 90
        0
176
     1
 40
0.6
176
     1
 41
30.0
176
     1
 62
     5
 63
     7
421
 16777215
176
     1
 74
     1
176
     1
 91
        4
176
     1
 64
     7
176
     1
 65
   257
176
     1
 75
     1
176
     1
175
     1
176
     1
 42
1.0
176
     1
 92
        8
176
     1
 66
     7
176
     1
 43
1.0
176
     1
 76
     1
176
     1
 77
     6
176
     1
 78
     2
176
     1
 67
     7
176
     1
 79
     5
176
     1
170
     0
176
     1
171
     0
176
     1
290
     0
176
     1
 93
        1
176
     1
 44
-50.0
176
     1
173
     0
176
     1
  0
VISUALSTYLE
  5
3D
102
{ACAD_REACTORS
330
2A
102
}
330
2A
100
AcDbVisualStyle
  2
EdgeColorOff
 70
    22
177
     2
291
     1
 71
     2
176
     0
 72
     2
176
     0
 73
     0
176
     0
 90
        0
176
     0
 40
0.6
176
     0
 41
30.0
176
     0
 62
     5
 63
     7
421
 16777215
176
     0
 74
     1
176
     0
 91
        4
176
     0
 64
     7
176
     0
 65
   257
176
     0
 75
     1
176
     0
175
     1
176
     0
 42
1.0
176
     0
 92
        8
176
     2
 66
     7
176
     0
 43
1.0
176
     0
 76
     1
176
     0
 77
     6
176
     0
 78
     2
176
     0
 67
     7
176
     0
 79
     5
176
     0
170
     0
176
     0
171
     0
176
     0
290
     0
176
     0
 93
        1
176
     0
 44
0.0
176
     0
173
     0
176
     0
  0
VISUALSTYLE
  5
39
102
{ACAD_REACTORS
330
2A
102
}
330
2A
100
AcDbVisualStyle
  2
Facepattern
 70
    15
177
     2
291
     1
 71
     2
176
     1
 72
     2
176
     1
 73
     0
176
     1
 90
        0
176
     1
 40
0.6
176
     1
 41
30.0
176
     1
 62
     5
 63
     7
421
 16777215
176
     1
 74
     1
176
     1
 91
        4
176
     1
 64
     7
176
     1
 65
   257
176
     1
 75
     1
176
     1
175
     1
176
     1
 42
1.0
176
     1
 92
        8
176
     1
 66
     7
176
     1
 43
1.0
176
     1
 76
     1
176
     1
 77
     6
176
     1
 78
     2
176
     1
 67
     7
176
     1
 79
     5
176
     1
170
     0
176
     1
171
     0
176
     1
290
     0
176
     1
 93
        1
176
     1
 44
0.0
176
     1
173
     0
176
     1
  0
VISUALSTYLE
  5
2B
102
{ACAD_REACTORS
330
2A
102
}
330
2A
100
AcDbVisualStyle
  2
Flat
 70
     0
177
     2
291
     1
 71
     2
176
     1
 72
     1
176
     1
 73
     1
176
     1
 90
        2
176
     1
 40
0.6
176
     1
 41
30.0
176
     1
 62
     5
 63
     7
421
 16777215
176
     1
 74
     0
176
     1
 91
        0
176
     1
 64
     7
176
     1
 65
   257
176
     1
 75
     1
176
     1
175
     1
176
     1
 42
1.0
176
     1
 92
        8
176
     1
 66
     7
176
     1
 43
1.0
176
     1
 76
     1
176
     1
 77
     6
176
     1
 78
     2
176
     1
 67
     7
176
     1
 79
     5
176
     1
170
     0
176
     1
171
     0
176
     1
290
     0
176
     1
 93
       13
176
     1
 44
0.0
176
     1
173
     0
176
     1
  0
VISUALSTYLE
  5
2C
102
{ACAD_REACTORS
330
2A
102
}
330
2A
100
AcDbVisualStyle
  2
FlatWithEdges
 70
     1
177
     2
291
     1
 71
     2
176
     1
 72
     1
176
     1
 73
     1
176
     1
 90
        2
176
     1
 40
0.6
176
     1
 41
30.0
176
     1
 62
     5
 63
     7
421
 16777215
176
     1
 74
     1
176
     1
 91
        0
176
     1
 64
     7
176
     1
 65
   257
176
     1
 75
     1
176
     1
175
     1
176
     1
 42
1.0
176
     1
 92
        0
176
     1
 66
   257
176
     1
 43
1.0
176
     1
 76
     1
176
     1
 77
     6
176
     1
 78
     2
176
     1
 67
     7
176
     1
 79
     5
176
     1
170
     0
176
     1
171
     0
176
     1
290
     0
176
     1
 93
       13
176
     1
 44
0.0
176
     1
173
     0
176
     1
  0
VISUALSTYLE
  5
2D
102
{ACAD_REACTORS
330
2A
102
}
330
2A
100
AcDbVisualStyle
  2
Gouraud
 70
     2
177
     2
291
     1
 71
     2
176
     1
 72
     2
176
     1
 73
     1
176
     1
 90
        2
176
     1
 40
0.6
176
     1
 41
30.0
176
     1
 62
     5
 63
     7
421
 16777215
176
     1
 74
     0
176
     1
 91
        0
176
     1
 64
     7
176
     1
 65
   257
176
     1
 75
     1
176
     1
175
     1
176
     1
 42
1.0
176
     1
 92
        0
176
     1
 66
     7
176
     1
 43
1.0
176
     1
 76
     1
176
     1
 77
     6
176
     1
 78
     2
176
     1
 67
     7
176
     1
 79
     5
176
     1
170
     0
176
     1
171
     0
176
     1
290
     0
176
     1
 93
       13
176
     1
 44
0.0
176
     1
173
     0
176
     1
  0
VISUALSTYLE
  5
2E
102
{ACAD_REACTORS
330
2A
102
}
330
2A
100
AcDbVisualStyle
  2
GouraudWithEdges
 70
     3
177
     2
291
     1
 71
     2
176
     1
 72
     2
176
     1
 73
     1
176
     1
 90
        2
176
     1
 40
0.6
176
     1
 41
30.0
176
     1
 62
     5
 63
     7
421
 16777215
176
     1
 74
     1
176
     1
 91
        0
176
     1
 64
     7
176
     1
 65
   257
176
     1
 75
     1
176
     1
175
     1
176
     1
 42
1.0
176
     1
 92
        0
176
     1
 66
   257
176
     1
 43
1.0
176
     1
 76
     1
176
     1
 77
     6
176
     1
 78
     2
176
     1
 67
     7
176
     1
 79
     5
176
     1
170
     0
176
     1
171
     0
176
     1
290
     0
176
     1
 93
       13
176
     1
 44
0.0
176
     1
173
     0
176
     1
  0
VISUALSTYLE
  5
31
102
{ACAD_REACTORS
330
2A
102
}
330
2A
100
AcDbVisualStyle
  2
Hidden
 70
     6
177
     2
291
     0
 71
     1
176
     1
 72
     2
176
     1
 73
     2
176
     1
 90
        0
176
     1
 40
0.6
176
     1
 41
30.0
176
     1
 62
     5
 63
     7
421
 16777215
176
     1
 74
     2
176
     1
 91
        2
176
     1
 64
     7
176
     1
 65
   257
176
     1
 75
     2
176
     1
175
     1
176
     1
 42
40.0
176
     1
 92
        0
176
     1
 66
   257
176
     1
 43
1.0
176
     1
 76
     1
176
     1
 77
     6
176
     1
 78
     2
176
     1
 67
     7
176
     1
 79
     3
176
     1
170
     0
176
     1
171
     0
176
     1
290
     0
176
     1
 93
        1
176
     1
 44
0.0
176
     1
173
     0
176
     1
  0
VISUALSTYLE
  5
3B
102
{ACAD_REACTORS
330
2A
102
}
330
2A
100
AcDbVisualStyle
  2
JitterOff
 70
    20
177
     2
291
     1
 71
     2
176
     0
 72
     2
176
     0
 73
     0
176
     0
 90
        0
176
     0
 40
0.6
176
     0
 41
30.0
176
     0
 62
     5
 63
     7
421
 16777215
176
     0
 74
     1
176
     0
 91
        4
176
     0
 64
     7
176
     0
 65
   257
176
     0
 75
     1
176
     0
175
     1
176
     0
 42
1.0
176
     0
 92
       10
176
     2
 66
     7
176
     0
 43
1.0
176
     0
 76
     1
176
     0
 77
     6
176
     0
 78
     2
176
     0
 67
     7
176
     0
 79
     5
176
     0
170
     0
176
     0
171
     0
176
     0
290
     0
176
     0
 93
        1
176
     0
 44
0.0
176
     0
173
     0
176
     0
  0
VISUALSTYLE
  5
38
102
{ACAD_REACTORS
330
2A
102
}
330
2A
100
AcDbVisualStyle
  2
Linepattern
 70
    14
177
     2
291
     1
 71
     2
176
     1
 72
     2
176
     1
 73
     0
176
     1
 90
        0
176
     1
 40
0.6
176
     1
 41
30.0
176
     1
 62
     5
 63
     7
421
 16777215
176
     1
 74
     1
176
     1
 91
        4
176
     1
 64
     7
176
     1
 65
   257
176
     1
 75
     7
176
     1
175
     7
176
     1
 42
1.0
176
     1
 92
        8
176
     1
 66
     7
176
     1
 43
1.0
176
     1
 76
     1
176
     1
 77
     6
176
     1
 78
     2
176
     1
 67
     7
176
     1
 79
     5
176
     1
170
     0
176
     1
171
     0
176
     1
290
     0
176
     1
 93
        1
176
     1
 44
0.0
176
     1
173
     0
176
     1
  0
VISUALSTYLE
  5
3C
102
{ACAD_REACTORS
330
2A
102
}
330
2A
100
AcDbVisualStyle
  2
OverhangOff
 70
    21
177
     2
291
     1
 71
     2
176
     0
 72
     2
176
     0
 73
     0
176
     0
 90
        0
176
     0
 40
0.6
176
     0
 41
30.0
176
     0
 62
     5
 63
     7
421
 16777215
176
     0
 74
     1
176
     0
 91
        4
176
     0
 64
     7
176
     0
 65
   257
176
     0
 75
     1
176
     0
175
     1
176
     0
 42
1.0
176
     0
 92
        9
176
     2
 66
     7
176
     0
 43
1.0
176
     0
 76
     1
176
     0
 77
     6
176
     0
 78
     2
176
     0
 67
     7
176
     0
 79
     5
176
     0
170
     0
176
     0
171
     0
176
     0
290
     0
176
     0
 93
        1
176
     0
 44
0.0
176
     0
173
     0
176
     0
  0
VISUALSTYLE
  5
33
102
{ACAD_REACTORS
330
2A
102
}
330
2A
100
AcDbVisualStyle
  2
Realistic
 70
     8
177
     2
291
     0
 71
     2
176
     1
 72
     3
176
     1
 73
     0
176
     1
 90
        2
176
     1
 40
0.6
176
     1
 41
30.0
176
     1
 62
     5
 63
     7
421
 16777215
176
     1
 74
     0
176
     1
 91
        0
176
     1
 64
     7
176
     1
 65
   257
176
     1
 75
     1
176
     1
175
     1
176
     1
 42
1.0
176
     1
 92
        8
176
     1
 66
   257
176
     1
 43
1.0
176
     1
 76
     1
176
     1
 77
     6
176
     1
 78
     2
176
     1
 67
     7
176
     1
 79
     3
176
     1
170
     0
176
     1
171
     0
176
     1
290
     0
176
     1
 93
       13
176
     1
 44
0.0
176
     1
173
     0
176
     1
  0
VISUALSTYLE
  5
42
102
{ACAD_REACTORS
330
2A
102
}
330
2A
100
AcDbVisualStyle
  2
Shaded
 70
    27
177
     2
291
     0
 71
     2
176
     1
 72
     2
176
     1
 73
     1
176
     1
 90
        2
176
     1
 40
0.6
176
     1
 41
30.0
176
     1
 62
     5
 63
     7
421
 16777215
176
     1
 74
     0
176
     1
 91
        4
176
     1
 64
     7
176
     1
 65
   257
176
     1
 75
     1
176
     1
175
     1
176
     1
 42
1.0
176
     1
 92
        8
176
     1
 66
   257
176
     1
 43
1.0
176
     1
 76
     1
176
     1
 77
     6
176
     1
 78
     2
176
     1
 67
     8
425
  7895160
176
     1
 79
     3
176
     1
170
     0
176
     1
171
     0
176
     1
290
     0
176
     1
 93
        5
176
     1
 44
0.0
176
     1
173
     0
176
     1
  0
VISUALSTYLE
  5
41
102
{ACAD_REACTORS
330
2A
102
}
330
2A
100
AcDbVisualStyle
  2
Shaded with edges
 70
    26
177
     2
291
     0
 71
     2
176
     1
 72
     2
176
     1
 73
     1
176
     1
 90
        2
176
     1
 40
0.6
176
     1
 41
30.0
176
     1
 62
     5
 63
     7
421
 16777215
176
     1
 74
     1
176
     1
 91
       10
176
     1
 64
     7
176
     1
 65
   257
176
     1
 75
     2
176
     1
175
     1
176
     1
 42
1.0
176
     1
 92
        8
176
     1
 66
   257
176
     1
 43
1.0
176
     1
 76
     1
176
     1
 77
     6
176
     1
 78
     2
176
     1
 67
     7
176
     1
 79
     3
176
     1
170
     0
176
     1
171
     0
176
     1
290
     0
176
     1
 93
        5
176
     1
 44
0.0
176
     1
173
     0
176
     1
  0
VISUALSTYLE
  5
3E
102
{ACAD_REACTORS
330
2A
102
}
330
2A
100
AcDbVisualStyle
  2
Shades of Gray
 70
    23
177
     2
291
     0
 71
     2
176
     1
 72
     2
176
     1
 73
     3
176
     1
 90
        0
176
     1
 40
0.6
176
     1
 41
30.0
176
     1
 62
     5
 63
     7
421
 16777215
176
     1
 74
     2
176
     1
 91
        2
176
     1
 64
     7
176
     1
 65
     7
176
     1
 75
     1
176
     1
175
     1
176
     1
 42
40.0
176
     1
 92
        8
176
     1
 66
     7
176
     1
 43
1.0
176
     1
 76
     1
176
     1
 77
     6
176
     1
 78
     2
176
     1
 67
     7
176
     1
 79
     3
176
     1
170
     0
176
     1
171
     0
176
     1
290
     0
176
     1
 93
        1
176
     1
 44
0.0
176
     1
173
     0
176
     1
  0
VISUALSTYLE
  5
3F
102
{ACAD_REACTORS
330
2A
102
}
330
2A
100
AcDbVisualStyle
  2
Sketchy
 70
    24
177
     2
291
     0
 71
     1
176
     1
 72
     2
176
     1
 73
     2
176
     1
 90
        0
176
     1
 40
0.6
176
     1
 41
30.0
176
     1
 62
     5
 63
     7
421
 16777215
176
     1
 74
     2
176
     1
 91
        2
176
     1
 64
     7
176
     1
 65
     7
176
     1
 75
     1
176
     1
175
     1
176
     1
 42
40.0
176
     1
 92
       11
176
     1
 66
     7
176
     1
 43
1.0
176
     1
 76
     1
176
     1
 77
     6
176
     1
 78
     2
176
     1
 67
     7
176
     1
 79
     6
176
     1
170
     0
176
     1
171
     0
176
     1
290
     0
176
     1
 93
        1
176
     1
 44
0.0
176
     1
173
     0
176
     1
  0
VISUALSTYLE
  5
37
102
{ACAD_REACTORS
330
2A
102
}
330
2A
100
AcDbVisualStyle
  2
Thicken
 70
    13
177
     2
291
     1
 71
     2
176
     1
 72
     2
176
     1
 73
     0
176
     1
 90
        0
176
     1
 40
0.6
176
     1
 41
30.0
176
     1
 62
     5
 63
     7
421
 16777215
176
     1
 74
     1
176
     1
 91
        4
176
     1
 64
     7
176
     1
 65
   257
176
     1
 75
     1
176
     1
175
     1
176
     1
 42
1.0
176
     1
 92
       12
176
     1
 66
     7
176
     1
 43
1.0
176
     1
 76
     1
176
     1
 77
     6
176
     1
 78
     2
176
     1
 67
     7
176
     1
 79
     5
176
     1
170
     0
176
     1
171
     0
176
     1
290
     0
176
     1
 93
        1
176
     1
 44
0.0
176
     1
173
     0
176
     1
  0
VISUALSTYLE
  5
30
102
{ACAD_REACTORS
330
2A
102
}
330
2A
100
AcDbVisualStyle
  2
Wireframe
 70
     5
177
     2
291
     0
 71
     0
176
     1
 72
     2
176
     1
 73
     0
176
     1
 90
        0
176
     1
 40
0.6
176
     1
 41
30.0
176
     1
 62
     5
 63
     7
421
 16777215
176
     1
 74
     1
176
     1
 91
        4
176
     1
 64
     7
176
     1
 65
   257
176
     1
 75
     1
176
     1
175
     1
176
     1
 42
1.0
176
     1
 92
        0
176
     1
 66
   257
176
     1
 43
1.0
176
     1
 76
     1
176
     1
 77
     6
176
     1
 78
     2
176
     1
 67
     7
176
     1
 79
     3
176
     1
170
     0
176
     1
171
     0
176
     1
290
     0
176
     1
 93
        1
176
     1
 44
0.0
176
     1
173
     0
176
     1
  0
VISUALSTYLE
  5
40
102
{ACAD_REACTORS
330
2A
102
}
330
2A
100
AcDbVisualStyle
  2
X-Ray
 70
    25
177
     2
291
     0
 71
     2
176
     1
 72
     2
176
     1
 73
     1
176
     1
 90
        1
176
     1
 40
0.5
176
     1
 41
30.0
176
     1
 62
     5
 63
     7
421
 16777215
176
     1
 74
     1
176
     1
 91
        0
176
     1
 64
     7
176
     1
 65
   257
176
     1
 75
     1
176
     1
175
     1
176
     1
 42
1.0
176
     1
 92
        8
176
     1
 66
     7
176
     1
 43
1.0
176
     1
 76
     1
176
     1
 77
     6
176
     1
 78
     2
176
     1
 67
     7
176
     1
 79
     3
176
     1
170
     0
176
     1
171
     0
176
     1
290
     0
176
     1
 93
       13
176
     1
 44
0.0
176
     1
173
     0
176
     1
  0
DICTIONARYVAR
  5
3B8
102
{ACAD_REACTORS
330
3B7
102
}
330
3B7
100
DictionaryVariables
280
     0
  1
1:1
  0
DICTIONARYVAR
  5
3BD
102
{ACAD_REACTORS
330
3B7
102
}
330
3B7
100
DictionaryVariables
280
     0
  1
Standard
  0
DICTIONARYVAR
  5
3BC
102
{ACAD_REACTORS
330
3B7
102
}
330
3B7
100
DictionaryVariables
280
     0
  1
Standard
  0
DICTIONARY
  5
3B9
330
5A
100
AcDbDictionary
280
     1
281
     1
  3
ACAD_ROUNDTRIP_2008_TABLESTYLE_CELLSTYLEMAP
360
3BA
  0
CELLSTYLEMAP
  5
3BA
102
{ACAD_REACTORS
330
3B9
102
}
330
3B9
100
AcDbCellStyleMap
 90
        3
300
CELLSTYLE
  1
TABLEFORMAT_BEGIN
 90
        5
170
     1
 91
        0
 92
    32768
 62
   257
 93
        1
300
CONTENTFORMAT
  1
CONTENTFORMAT_BEGIN
 90
        0
 91
        0
 92
        4
 93
        0
300

 40
0.0
140
1.0
 94
        5
 62
     0
340
11
144
0.25
309
CONTENTFORMAT_END
171
     1
301
MARGIN
  1
CELLMARGIN_BEGIN
 40
0.06
 40
0.06
 40
0.06
 40
0.06
 40
0.06
 40
0.06
309
CELLMARGIN_END
 94
        6
 95
        1
302
GRIDFORMAT
  1
GRIDFORMAT_BEGIN
 90
        0
 91
        1
 62
     0
 92
       -2
340
14
 93
        0
 40
0.045
309
GRIDFORMAT_END
 95
        2
302
GRIDFORMAT
  1
GRIDFORMAT_BEGIN
 90
        0
 91
        1
 62
     0
 92
       -2
340
14
 93
        0
 40
0.045
309
GRIDFORMAT_END
 95
        4
302
GRIDFORMAT
  1
GRIDFORMAT_BEGIN
 90
        0
 91
        1
 62
     0
 92
       -2
340
14
 93
        0
 40
0.045
309
GRIDFORMAT_END
 95
        8
302
GRIDFORMAT
  1
GRIDFORMAT_BEGIN
 90
        0
 91
        1
 62
     0
 92
       -2
340
14
 93
        0
 40
0.045
309
GRIDFORMAT_END
 95
       16
302
GRIDFORMAT
  1
GRIDFORMAT_BEGIN
 90
        0
 91
        1
 62
     0
 92
       -2
340
14
 93
        0
 40
0.045
309
GRIDFORMAT_END
 95
       32
302
GRIDFORMAT
  1
GRIDFORMAT_BEGIN
 90
        0
 91
        1
 62
     0
 92
       -2
340
14
 93
        0
 40
0.045
309
GRIDFORMAT_END
309
TABLEFORMAT_END
  1
CELLSTYLE_BEGIN
 90
        1
 91
        1
300
_TITLE
309
CELLSTYLE_END
300
CELLSTYLE
  1
TABLEFORMAT_BEGIN
 90
        5
170
     1
 91
        0
 92
        0
 62
   257
 93
        1
300
CONTENTFORMAT
  1
CONTENTFORMAT_BEGIN
 90
        0
 91
        0
 92
        4
 93
        0
300

 40
0.0
140
1.0
 94
        5
 62
     0
340
11
144
0.18
309
CONTENTFORMAT_END
171
     1
301
MARGIN
  1
CELLMARGIN_BEGIN
 40
0.06
 40
0.06
 40
0.06
 40
0.06
 40
0.06
 40
0.06
309
CELLMARGIN_END
 94
        6
 95
        1
302
GRIDFORMAT
  1
GRIDFORMAT_BEGIN
 90
        0
 91
        1
 62
     0
 92
       -2
340
14
 93
        0
 40
0.045
309
GRIDFORMAT_END
 95
        2
302
GRIDFORMAT
  1
GRIDFORMAT_BEGIN
 90
        0
 91
        1
 62
     0
 92
       -2
340
14
 93
        0
 40
0.045
309
GRIDFORMAT_END
 95
        4
302
GRIDFORMAT
  1
GRIDFORMAT_BEGIN
 90
        0
 91
        1
 62
     0
 92
       -2
340
14
 93
        0
 40
0.045
309
GRIDFORMAT_END
 95
        8
302
GRIDFORMAT
  1
GRIDFORMAT_BEGIN
 90
        0
 91
        1
 62
     0
 92
       -2
340
14
 93
        0
 40
0.045
309
GRIDFORMAT_END
 95
       16
302
GRIDFORMAT
  1
GRIDFORMAT_BEGIN
 90
        0
 91
        1
 62
     0
 92
       -2
340
14
 93
        0
 40
0.045
309
GRIDFORMAT_END
 95
       32
302
GRIDFORMAT
  1
GRIDFORMAT_BEGIN
 90
        0
 91
        1
 62
     0
 92
       -2
340
14
 93
        0
 40
0.045
309
GRIDFORMAT_END
309
TABLEFORMAT_END
  1
CELLSTYLE_BEGIN
 90
        2
 91
        1
300
_HEADER
309
CELLSTYLE_END
300
CELLSTYLE
  1
TABLEFORMAT_BEGIN
 90
        5
170
     1
 91
        0
 92
        0
 62
   257
 93
        1
300
CONTENTFORMAT
  1
CONTENTFORMAT_BEGIN
 90
        0
 91
        0
 92
        4
 93
        0
300

 40
0.0
140
1.0
 94
        2
 62
     0
340
11
144
0.18
309
CONTENTFORMAT_END
171
     1
301
MARGIN
  1
CELLMARGIN_BEGIN
 40
0.06
 40
0.06
 40
0.06
 40
0.06
 40
0.06
 40
0.06
309
CELLMARGIN_END
 94
        6
 95
        1
302
GRIDFORMAT
  1
GRIDFORMAT_BEGIN
 90
        0
 91
        1
 62
     0
 92
       -2
340
14
 93
        0
 40
0.045
309
GRIDFORMAT_END
 95
        2
302
GRIDFORMAT
  1
GRIDFORMAT_BEGIN
 90
        0
 91
        1
 62
     0
 92
       -2
340
14
 93
        0
 40
0.045
309
GRIDFORMAT_END
 95
        4
302
GRIDFORMAT
  1
GRIDFORMAT_BEGIN
 90
        0
 91
        1
 62
     0
 92
       -2
340
14
 93
        0
 40
0.045
309
GRIDFORMAT_END
 95
        8
302
GRIDFORMAT
  1
GRIDFORMAT_BEGIN
 90
        0
 91
        1
 62
     0
 92
       -2
340
14
 93
        0
 40
0.045
309
GRIDFORMAT_END
 95
       16
302
GRIDFORMAT
  1
GRIDFORMAT_BEGIN
 90
        0
 91
        1
 62
     0
 92
       -2
340
14
 93
        0
 40
0.045
309
GRIDFORMAT_END
 95
       32
302
GRIDFORMAT
  1
GRIDFORMAT_BEGIN
 90
        0
 91
        1
 62
     0
 92
       -2
340
14
 93
        0
 40
0.045
309
GRIDFORMAT_END
309
TABLEFORMAT_END
  1
CELLSTYLE_BEGIN
 90
        3
 91
        2
300
_DATA
309
CELLSTYLE_END
  0
ENDSEC
  0
EOF
